Wakacyjny Konkurs Śpiewnikowy
Wakacyjny Konkurs Śpiewnikowy
Popraw Opracowanie Usuń
Transponuj
0

Golden Heart Dire Straits

Tekst piosenki

  • Tekst piosenki Punko
    2 ulubione
GOLDEN HEART
Mark Knopfler 1996

Introduction

0:08                                            0:20
|----------------3-5-3s2---0-3-0---0-3-----------|-----0---0-------------------
|-----0----------3---------1-----3-----0-----3-0-|-----------3-----3-----3-1-0-
|-0-2---0-2-0-0--0-------0---------------2-0-----|---0---0-------0-----0-------
|------------------------------------------------|-3-----------3-----3---------
|------------------------------------------------|-----------------------------
|------------------------------------------------|-----------------------------

        0:27                                                        0:39
---------|-3-5-5-3---0---3--0---0-3----------------------------------|---------
---0-----|-3-----------1------3-----0----0-----3----0-0--1-3-1-0---0-|--1--0---
-0---2-0-|-0-------0-------------------2---2-0----0--------------2---|0------2-
---------|-----------------------------------------------------------|---------
---------|-----------------------------------------------------------|---------
---------|-----------------------------------------------------------|---------

    0:42
-----|
-----|
-0-0-| ... lyrics at 0:45
-----|
-----|
-----|

Solo at 2:36

2:36                      2:41
|--------------------------|-3-5-3---0----0-2-0----0-3-------------------------
|----0---0-3-1-0-----------|-0-------1----1-3-1-3---------1-0-----3-0-------1-0
|0-2---0---------2-0-2-0-0-|-0-----0----0-------4------4------2-0-----2-0------
|--------------------------|---------------------------------------------------
|--------------------------|---------------------------------------------------
|--------------------------|---------------------------------------------------

  2:52               2:56                                      3:04
---|------------------|-3-3-5-3---2-0--2-3-0---3----3-5-3-0---3-|--------------
---|-----0---0------0-|-3--------------------3----0---------3---|-1-3-1----0---
-2-|-0-2----0-0-2-0---|-0---------------------------------------|------0-2-----
---|------------------|-----------------------------------------|--------------
---|------------------|-----------------------------------------|--------------
---|------------------|-----------------------------------------|--------------

            3:10
-------------|
---1---------|
-0---0-2-0-0-|
-------------|
-------------|
-------------|

Oceń to opracowanie

Kontrybucje
Punko

Wakacyjny Konkurs Śpiewnikowy

Pula nagród w konkursie ponad 10.000 zł!
Przysyłaj opracowania piosenek i zdobądź bony na zakupy w sklepie muzycznym.
Zapoznaj się z regulaminem konkursu.
anonim