Planet of New orleans Dire Straits

Tekst piosenki

  • Tekst piosenki -=art=-
Intro solo:

---------------|---------------------------|------|-------|----------------|
---------------|---------------------------|------|-------|----------------|
---------------|--------11-12-14>12--------|-14>9-|-9>7>5-|-7-4>5-7-4>5----|
--12--14-12-14-|-12-14--------------12>14--|------|-------|----------------|
---------------|---------------------------|------|-------|----------------|
---------------|---------------------------|------|-------|----------------|


------------|---------------|-------|------------------|-------------------
------------|---------------|-------|------------15>10-|-10-15-12----------
-------9-7--|-----9-12>11-9-|-12>9--|-----12-14--------|-------------------
--7-10------|-12------------|-------|-12---------------|-------------------
------------|---------------|-------|------------------|-------------------
------------|---------------|-------|------------------|-------------------


-----------|-----------|--------12--
-12-13-10--|-12-13-15--|-13-15------
-----------|-----------|------------
-----------|-----------|------------
-----------|-----------|------------
-----------|-----------|------------

"Middle" solo. Begins at 4' 02".

---------------|--------------------|--------------------------------------
10-12-13-12-10-|-12-12-10-----------|-13-------7---7---7---8------------8--
---------------|-----------12<11<9--|----12<9----9---9---9---9-7-9-7-9-----
---------------|--------------------|--------------------------------------
---------------|--------------------|--------------------------------------
---------------|--------------------|--------------------------------------
^^^^^
The 3 last notes are
played very softly


----------------------|-------------|------------------|
-------12-13-13-13<12-|-10-12-13<12-|-10-10-10---------|
-12-14----------------|-------------|----------12-11-9-|
----------------------|-------------|------------------|
----------------------|-------------|------------------|
----------------------|-------------|------------------|

-------------------------|
------------10-10<12-10--|
-11-9-11-9---------------|
-------------------------|
-------------------------|
-------------------------|


Oceń to opracowanie
Kontrybucje:
-=art=-
-=art=-
anonim