A bym Mógł Przed Siebie Iść Dżem

INTRO:
|---9----------5---------4----------------|
|-----10---------7---------5--------------|
|--------9---------7---------4----2-------|
|-7-------------------------------0----0--|
|--------------------------------------0--|
|-----------------------------------------|


ZWROTKA: (klasyczny bluesowy podlkad)

Pewnie ciezki ... dzien
|-------------------------|------------------------|
|-------------------------|------------------------|
|-------------------------|2---2-4---4-5---5-4---4-|
|-2---2-4---4-5---5-4---4-|0---0-0---0-0---0-0---0-|
|-0---0-0---0-0---0-0---0-|------------------------|
|-------------------------|------------------------|

glod i chlod obudzily ...
|-------------------------|------------------------|
|-------------------------|------------------------|
|-------------------------|------------------------|
|-2---2-4---4-5---5-4---4-|2---2-4---4-5---5-4---4-|
|-0---0-0---0-0---0-0---0-|0---0-0---0-0---0-0---0-|
|-------------------------|------------------------|

w zastaw dalem....
|-------------------------|------------------------|
|-------------------------|------------------------|
|-2---2-4---4-5---5-4---4-|2---2-4---4-5---5-4---4-|
|-0---0-0---0-0---0-0---0-|0---0-0---0-0---0-0---0-|
|-------------------------|------------------------|
|-------------------------|------------------------|

ktore nosilem przez ......
|-------------------------|------------------------|
|-------------------------|------------------------|
|-------------------------|------------------------|
|-2---2-4---4-5---5-4---4-|2---2-4---4-5---5-4---4-|
|-0---0-0---0-0---0-0---0-|0---0-0---0-0---0-0---0-|
|-------------------------|------------------------|

zimno mi zimno mi i forsy brak
|-----4-----5----4-----4-----|----2------3-----2-----2-----|
|-------5-----5----5-----5---|------3------3-----3-----3---|
|---------4----4-----4-----4-|--------2------2-----2-----2-|
|-2--------------------------|-0---------------------------|
|----------------------------|-----------------------------|
|----------------------------|-----------------------------|

ale nie jest zle, o nie
|---9----------5---------4----------------|
|-----10---------7---------5--------------|
|--------9---------7---------4----2-------|
|-7-------------------------------0----0--|
|--------------------------------------0--|
|-----------------------------------------|


CODA:
aby soba byc prawdzie patrzec w twarz
|----------------|------------|
|----------------|------------|
|----------------|-5--2-----2-|
|--2-------------|-5--2--5--2-|
|--0-------------|-3--0--5--0-|
|----------------|-------3----|


kochac wszystkich ludzi pokoj soba niesc
|----------------------------|--------------|
|----------------------------|--------------|
|-5--2-----------------------|-5--2-----2---|
|-5--2-----------------------|-5--2--5--2---|
|-3--0-----------------------|-3--0--5--0---|
|----------------------------|-------3------|

Słowa:

Pewnie ciezki znow bedzie dzien
glod i chlod obudzily mnie
w zastaw dalem jedyne palto
ktore nosilem przez tyle lat
zimno mi, zimno mi i forsy brak
ale nie jest zle, o nie

Zostal jeszcze nadziei cien
kiedy przeciez zapomne ze
mialem wlasna zone i dom
i ze dobrze bylo mi z nia
a jeszcze mam nadziei cien
ze to byl tylko zly sen, tylko zly sen

Nikt juz nie,nie
nikt juz nie, nie namowi mnie
abym zostal na dluzej gdzies
musze przeciez wolnym byc
abym mogl, no abym mogl przed siebie isc
czy ktos z was zrozumie to
ze w tym wlasnie sens, w tym wlasnie sens

Aby soba byc
prawdzie patrzec w twarz
kochac wszystkich ludzi
pokoj soba niesc


Oceń to opracowanie
Ocena czytelników: Doskonały 1 głos
Kontrybucje:
Angie
Angie
anonim
  • Kacper
    kinia
    WEJDZ NA STRONE WWW.DZEM.PL tam powinienes cos znalesc. kocham dzem!!!
    · Zgłoś · 15 lat temu
  • Kacper
    mokli
    Czy ktoś ma muzykę Dżemu????Ja szukam wszędzie i nie mgę znależć.pomózcie!!!!
    · Zgłoś · 15 lat temu