Wakacyjny Konkurs Śpiewnikowy
Wakacyjny Konkurs Śpiewnikowy
Popraw Opracowanie
Transponuj
0

Do kołyski solo Dżem

Tekst piosenki

  • Tekst piosenki Nek
    3 ulubione
                      ^full
||--------------------|-------|    ||---------------------------|   ||----------------------------|
||--------------------|-------|    ||---------------------------|   ||----------------------------|
||----12---12---14--14--|    ||--14---------14--12---|   ||--11--12-14------7--9-|
||----------------------------|    ||--------------------------|   ||----------------------------|
||----------------------------|    ||--------------------------|   ||----------------------------|
||----------------------------|    ||--------------------------|   ||----------------------------|

     ^ full  ^full ^full ^full                                              ^full
||----|--|----|---|---|-------|    ||-------------------------------|   ||-------|-------------------|
||---9--9---9---9---9--7|    ||---------------------------12|   ||--15--15---15---14----|
||--------------------------|    ||---9---------------12-14---|   ||----------------------------|
||--------------------------|    ||-----9-----12-14-----------|   ||----------------------------|
||--------------------------|    ||-------------------------------|   ||---------------------------|
||--------------------------|    ||-------------------------------|   ||---------------------------|
                                                                                                                                                                                                                                                       ^full    ^full                                                                                ^full                                              ^full
||---------------------|------|-----|    ||----------------------------|   ||---|-----|-------------|
||-15-14-15-14---------|-17---|-----|    ||--------------15-17-12------|   ||--15---17--17--15-----|
||-------------16-14--16----16-16--|    ||---14---14-16---------------|   ||----------------------|
||---------------------------------|    ||----------------------------|   ||----------------------|
||---------------------------------|    ||----------------------------|   ||----------------------|
||---------------------------------|    ||----------------------------|   ||----------------------|


||------------------------------------|    ||------------------12-14-----|   ||---14--12--14------14--15--17----|
||--17-----15---14--------------------|    ||---------12-14-15-----------|   ||---------------------------------|
||-------------------16---14--12---11-|    ||--12--14--------------------|   ||---------------------------------|
||------------------------------------|    ||----------------------------|   ||---------------------------------|
||------------------------------------|    ||----------------------------|   ||---------------------------------|
||------------------------------------|    ||----------------------------|   ||---------------------------------|
                                                     ^full                              ^full
||--15--14--15----15--17--17--------|    ||-----17-----------17-----15--14----|   ||---------------------------------------------|
||----------------------------------|    ||--------------------------------17-|   ||--15-14----15-14-------14--------------------|
||----------------------------------|    ||-----------------------------------|   ||--------16-------16-14----16-14---16-14------|
||----------------------------------|    ||-----------------------------------|   ||-------------------------------17-------17-16|
||----------------------------------|    ||-----------------------------------|   ||---------------------------------------------|
||----------------------------------|    ||-----------------------------------|   ||---------------------------------------------|
                                                                                                                ^full ^full                 ^full                                 ^full       ^full
||---------------------------------14-15-17-15-17|    ||--17---17------15--19----|   ||-----------19-----20--|
||----------------------------15-17--------------|    ||-------------------------|   ||----------------------|
||-------------------14-16-18--------------------|    ||-------------------------|   ||----------------------|
||----------14-16-17-----------------------------|    ||-------------------------|   ||----------------------|
||-14-16-17--------------------------------------|    ||-------------------------|   ||----------------------|
||-----------------------------------------------|    ||-------------------------|   ||----------------------|

                                                                                                                 ^full
||--------19-17--15--14-|    ||--17-17--14-----------|   ||----|-------15--14-----|
||----------------------|    ||--------------17-15---|   ||---15---17--------17--|
||----------------------|    ||----------------------|   ||----------------------|
||----------------------|    ||----------------------|   ||----------------------|
||----------------------|    ||----------------------|   ||----------------------|
||----------------------|    ||----------------------|   ||----------------------|

                             ^full
||-------------|-------------|   ||-----------------------|   ||-----------------------------|
||-----15--17--|-------------|   ||-------12--14-14-14-12-|   ||-14--12----------------------|
||--16--------14------------|    ||--1214-----------------|   ||---------14--12--11--9-------|
||--------------------------|    ||-----------------------|   ||-----------------------------|
||--------------------------|    ||-----------------------|   ||-----------------------------|
||--------------------------|    ||-----------------------|   ||-----------------------------|

             ^full                                            ^full                                                      ^full
||-----|-----------------|    ||----|--------7----------|   ||--------|--------------|
||-----|-----------------|    ||----|-----7----7--------|   ||--------|--------------|
||-----9-----------------|   ||----9------------9------|   ||-------9---------------|
||----------------------|     ||------------------------|   ||----------------------|
||----------------------|     ||------------------------|   ||----------------------|
                                                                                                                                                           ^full
||-----------------------------|    ||----10----------------|   ||-----12---10--9---|----|
||---------------------10---12-|    ||-------12--12---------|   ||-----------------10---|
||--7--9-7---------9 11 --------|    ||----------------------|   ||----------------------|
||-----------------------------|    ||----------------------|   ||----------------------|
||-----------------------------|    ||----------------------|   ||----------------------|
||-----------------------------|    ||----------------------|   ||----------------------|
||-----------------------------|    ||----------------------|   ||----------------------|

Oceń to opracowanie
Ocena czytelników: Dobry+ 6 głosów

Kontrybucje
Nek

Wakacyjny Konkurs Śpiewnikowy

Pula nagród w konkursie ponad 10.000 zł!
Przysyłaj opracowania piosenek i zdobądź bony na zakupy w sklepie muzycznym.
Zapoznaj się z regulaminem konkursu.
anonim
Znaleziono 2 komentarze.
  • Anonimowy użytkownik
    fryta gitara 5 lat temu

    LOL

  • Kevin
    Kevin 10 lat temu

    ja tu widzę pare błędów, ale większość jest dobra, proponuje sciągnąć sobie guitar pro i pobrac taby do tego(jak coś to pisać, ja mam --2385351gg), tam jest lepiej to zrobione :D:D