Ostatnie widzenie Dżem

Main riff:
E|-----------------------------------------------|
H|-----------------------------------------------|
G|-----------------------------------------------|
D|------2--------0---------0------3------3/5-----|
A|----0---0----2---2-----0---0----3----3-----3---|
E|--0-------03-------3-2-------2-01--1---------1-|

Coda (po refrenie):
E|---------------------------------------------|
H|---------------------------------------------|
G|------0--------0---------2---------0---------|
D|----2---2----2---2-----0---0-----2---2-------|
A|--0-------03-------3-0-------0-3-------3-----|
E|---------------------------------------------|


Oceń to opracowanie
Ocena czytelników: Fatalny+ 2 głosy
Kontrybucje:
Redakcja
Redakcja
anonim
  • anonim
    jagódka
    kurcze... nadal brakuje mi tabulaturki do pewnej czesci tej piosenki... czy ktos ma calosc?!?!?!?
    · Zgłoś · 17 lat temu
  • anonim
    g.
    piosenka jest super daje mi wiarę której mi brak i nadzieję że się kiedyś zmienieg
    · Zgłoś · 20 lat temu
  • Izunia
    To najpiekniejsza piosenka dzemu! nie ma drugiej takiej. Dziekuje Darkowi za Przyjazn
    · Zgłoś · 21 lat temu