Wakacyjny Konkurs Śpiewnikowy
Wakacyjny Konkurs Śpiewnikowy
Popraw Opracowanie Usuń
Transponuj
0

Wehikuł czasu Dżem

intro: I gitara
----------------------------------------------------------------------
----------------------------------------------------------------------
----------------------------------2---4p2-----------------------------
-2--------2p0-----------------2-4-0------4p2--------------------------
-0--0-3h4------2-2------2p0-4---------------2h3-----------------------
---------------0-0--3h4-----2-----------------------------------------

---------------------------------------------------------------------
----------------------------3-3-3------------------------------------
----------------------------4-2-2-------4p2--------------------------
-2--------2p0---------------0-0-4-2~~------4p2-----------------------
-0--0-3h4-----2-2------2-----------------------2h3-------------------
--------------0-0--3h4-----------------------------------------------
Gdy I gitara gra powyższy riff drugi raz, II gitara gra:
-------------------------------------------------------------------------------
-------------------------------------------------------------------------------
---------------------------------11--------------9-9b--------------------------
-----7-9b--9b-7-9~~--------7--9b----9b-7~~----11-----11-9~~---9-7-9p7--7---7~~-
-7h9-------------------7h9-------------------------------------------9---9-----
-------------------------------------------------------------------------------
i ponownie riff z intro, po czym I zwrotka:
Pamiętam dobrze..
--------------------------------------0------------------------------------------
----2-------0------2-----3------2-----0--3--x--2--2-3-2--------------------------
----2-------1------2----2-2-----2-----1--2--x--2--------4p2----------------------
----2-------2------4---0--------2-----2--0--x--2---------------------------------
--0-------2-----4-------------0-----2----------0---------------------------------
---------0------2------------------0---------------------------------------------
Siódma rano..
------------------------------------------------0-x-0-0-0---------------------
----2----0----------3------2------0--3-3-3--2-x-2-x-2-2-2---------------------
----2----1-----2---2-2-----2------1--2-2-2--2-x-2-x-2-2-----------------------
----2----2-----2--0--------2------2--0-0----2-x-2-----------------------------
--0-----2---4--4---------0------2-----------0---------------------------------
-------0----2----------------0-0----------------------------------------------
Za to do puszki..
------------------------------------------------------------------------------
-----2------0--------------------------2---0--3-3-0--2---2h3p2-----3p2--------
-----2------1----2------2--4p2---------2---1--2-2-2--2---2-----4p2-----4p2----
--2--2------2----2--2s4--------4--2~~--2---2--0-0-0--2------------------------
--0-------2----4-4-------------------------2---------0------------------------
--------0------2-------------------------0------------------------------------
Po knajpach ... || refren:
--------------------------2h3p2----------0-----------------------------------
---------------0-----2--3------3----2------3-x-2-----------------------------
-------2-------1-----2--2-------2---2------2-x-2-----------------------------
---2---2-------2-----4--0-----------2------0-x-2--4p2------------------------
-0-0---0-----2-----4-4-------------0-----------0-----3h4---------------------
-----------0-------2-------------------0-------------------------------------
Ref: ( caly czas tak samo )
------------------------------------------------------------------------------
----------------3-------------------------------------------------------------
----------------2--2--2-------------------------------------------------------
-2-x-4---4-x-x--0--0--2--2--4p2-----------------------------------------------
-2-x-4---4-x-x--------0--0-----3h4--------------------------------------------
-0-x-2---2-x-x----------------------------------------------------------------
Wspaniali ludzie..
|---------p.m.------------| riff z intro, II gitara gra:
------------------------------------|--------------------------------------------------
------------------------------------|--------------------------------------------15~~--
-----------------------------7s2----|------14-16b--16b-14-16~~-------14-16-14-16-------
-7-7-7-7-7-7-7-7-7-7-7-7-7---7s2----|-14h16---------------------14-16------------------
-5-5-5-5-5-5-5-5-5-5-5-5-5---5s0----|--------------------------------------------------
------------------------------------|--------------------------------------------------
--------------------------------------------------------------------------
--17b(17)-17~~------------------------------------------------------------
----------------16b-14-16~~-------14-16b-14-16---14~~---------------------
-----------------------------14-16------------16----------4---------------
-----------------------------------------------------------4-0------------
--------------------------------------------------------------------------
Lecz we mnie zostało.. (oczywiście w miejscach Gdzie Jurek Styczyński gra pojedyncze dźwięki,
druga gitara gra podkład podobny do tego z początku I zwrotki )
--------------------------------------------------------------------------
-2------0-----2--------------------------2------0--3-x-2-2h3p2------------
-2------1-----2---------2--4p2-----------2------1--2-x-2------4p2---------
-2------2-----4---2-2s4--------4-2~~-----2------2--0-x-2---------4p2------
------2-----4--------------------------0------2--------0------------3h4---
----0-------2-------------------------------0-----------------------------
Gdy tak wspominam..
-----------------------------------------------------------------------
----2-----0-----2----3--------------------3-3--2-2h3p2-----------------
----2-----1-----2---2-2-------------------2-2--2------4p2--------------
----2-----2-----4--0--------2h4--4p2------0-0--2-----------------------
--0-----2----4--4--------3h4---------4p3-------0-----------------------
------0------2---------------------------------------------------------
Dużo bym dał..
-----------------------------------------------------------------------
---2----0----2--------------------2-------3-3--2-2h3p2--------2h3------
---2----1----2--------2--4-2------2----1--2-2--2------4p2--2h4---------
---2----2----4--2-2s4--------4-2--2----2--0-0--2-----------------------
-0----2----4-------------------------2---------0-----------------------
-----0-----2------------------------0----------------------------------
Mam jeszcze wiarę.. i refren tak samo
--------------------------------------0--------------------------------
---2-----0---2--------------------2----0-3-3-3-2-----------------------
---2-----1---2-------2~~-4p2------2------2-2-2-2-----------------------
---2-----2---4-2-2s4---------4----2------0-----2--4p2------------------
-0-----2---4-4------------------0----2---------0-----3h4---------------
-----0-----2------------------------0----------------------------------
Nastepnie solo gitarowe ( nie będę wstawiał, ponieważ jest już wstawione z Najemnika od innego
użytkownika ( ale rym^^ ), aczkolwiek uważam, że nienajlepsze;)

Po solówce: (podciągnięcia bardzo krótkie )
------------------------------------------------------------------------------
------------------------------------------------------------------------------
----------------------------------7~~---9b(9)-9~~-----------------------------
------7-9b--9b-7-9~~------7-9-7-9-----------------9b-7-9~~-----7-9b-7-9--7~~--
--7h9-----------------7-9-----------------------------------7-9---------9-----
------------------------------------------------------------------------------
i zagrywka z końca pierwszego refrenu
-----------------------------------------------------------------------------
-----------------------------------------------------------------------------
-----------------------------------------------------------------------------
-7s14------------------------------------------------------------------------
-----------------------------------------------------------------------------
-----------------------------------------------------------------------------
Następnie refren, tłumienie D przy: "nie powrócą już.." ,
riff z intra 2x, przy czym na końcu jest:
zwalniamy tempo..
---------------------------------------------------------------------------------------------
-3-3-----------3-3---------------------------------------------------------------------------
-4-2-2---------4-2-2-----------------14-16b-16~~-14~~----14~~~~~~-(-14---14---14)-----2------
-0-0-4-2~~---2-0-0-4-2~~--2s14-14-16------------------16------------------------------2------
----------3h4-------------------------------------------------------------------------0------
---------------------------------------------------------------------------------------------

Oceń to opracowanie
Ocena czytelników: Niczego sobie 10 głosów

Autor opracowania
pw7

Wakacyjny Konkurs Śpiewnikowy

Pula nagród w konkursie ponad 10.000 zł!
Przysyłaj opracowania piosenek i zdobądź bony na zakupy w sklepie muzycznym.
Zapoznaj się z regulaminem konkursu.