0
0

Layla Eric Clapton

Tekst piosenki i chwyty na gitarę

  • Chwyty na gitarę mlady
    22 ulubione
Eric Clapton
Layla Live

Zwrotka:
 cis                            gis
                What will you do when you get lonely
                cis          C      D        E
                With nobody waiting by your side?
                fis          B           E               A
                You've been running and hiding much too long,
                fis            B                 E       a 
                You know it's just your foolish pride.

               Tried to give you consolation,
               When your old man let you down.
               Like a fool, I fell in love with you,
               Turned the whole world upside down.


               Let's make the best of the situation,
               Before I finally go insane.
               Please don't say we'll never find a way
               And tell me all my love's in vain.

Ref:
gitara1

E--------------------------------------
B--------------------------------------
G--------------------------------------
D------0-3-0---7-7-5-3---3-5---5-7-----
A--0-3-------3-5-5-3-1---1-3---3-5-----
E----------------------3-----5---------

gitara2

E--------10-13-10-------15-13-12--------
B--10-13----------13-15----------13-15--
G---------------------------------------
D---------------------------------------
A---------------------------------------
E---------------------------------------

Oceń to opracowanie
Ocena czytelników: Niczego sobie 17 głosów
Kontrybucje:
mlady
mlady

Dodaj własne wykonanie

Umiesz zagrać tą piosenkę? Nagraj swoje wykonanie i pokaż innym jak grasz! Konkurs Morskie Opowieści
anonim