Na młodość Grzegorz Turnau

Tekst piosenki

  • Tekst piosenki 3EYE
    1 ulubiony
INTRO:
e-0-10-8--7-5-3--5-7-3-0-7-5--0-3--0-2-|

VERSE 1:
e--3----5------------|
B--5--7--7-----------|
G--4--7---7---6----2-|
D-------------7----3-|x2
A----5--------7----3-|
E-0----------5-5--1--|

ZWROTKA: Znów nie...
e-------------------------| |---------------------0-|
B-------------------------| |---------------------0-|
G—(0)---------------------| |----7----7---4---2---1-|
D--2--3--4--3--2--3--9--2-| |-7--7-7--7---5---3---2-|x2
A--2--3--4--3--2--3--9--2-| |-7-5--7-5----5---3---2-|
E-0--1--2--1--0--1--7--0--| |5----5-------3---1---0-|

REFREN: Na młodość...
e---------------------------------------------|
B---------(8)-------10--9---------------------|
G--5--7--9----5--7--10--9---------------------|
D--5--7--9----5--7--10--9--7--9--14--10--7--9-|
A-3--5--7----3--5--8---7---7--9--14--10--7--9-|
E-------------------------5--7--12--8---5--7--|

VERSE 1
ZWROTKA: Bo z...
REFREN: Na młodość...
po refrenie gramy to:
e|---------------------0-|
B|---------------------0-|
G|----7----7---4---2---1-|
D|-7--7-7--7---5---3---2-|x2
A|-7-5--7-5----5---3---2-|
E|5----5-------3---1---0-|

END: Na młodość...
e--------7-|
B--------9-|
G--5--7--9-|
D--5--7--9-|
A-3--5--7--|
E----------|





Oceń to opracowanie
Kontrybucje:
3EYE
3EYE
anonim