0
0

Byłabym Hey

Tekst piosenki i chwyty na gitarę

  • Chwyty na gitarę Tonacja a
    67 ulubionych
aGdybyś Fbył, a nie CbywałG 
dRaz na Fjakiś Cczas... G 
aByłaFbym wreszcie C"czyjaś"   G 
dNie "bezFpańska" - Caż tak..G.

aJesień Ctrwa -
Rdzawych Gliści czas,
KaFloszy, peleryn i amgły
Jesień Ctrwa -
Szpetnej Gaury czas
Pod Fpłaszcze się pcha,
Wyziębia nam serca - awiatr

Gdybyś miał, a nie miewał
Czas i chęć i gest...
Byłabym na wyłączność
A nie - ogólnie dostępna...

Jesień trwa -
Rdzawych liści czas,
Kaloszy, peleryn i mgły
Jesień trwa -
Szpetnej aury czas
Pod płaszcze się pcha,
Wyziębia nam serca - wiatr


Oceń to opracowanie
Ocena czytelników: Niczego sobie 8 głosów
anonim
  • wiktoria
    kobiece problemy... nastrojowa piosenka .
    · Zgłoś · 11 lat temu
  • Michasia
    Lori twój refren baaardzo mi przypadł.
    · Zgłoś · 12 lat temu
  • Nati
    piękna.. wymowna.. emocjonalna..
    · Zgłoś · 12 lat temu
  • abbey
    Ta piosenka jest świetna !!!!
    · Zgłoś · 13 lat temu
  • anonim
    BlackAndWhite
    Super Piosenka:):)
    Pozdrawiam:**
    · Zgłoś · 13 lat temu
  • Krzywy banan:)
    kocham te piosenkę....faktycznie mi na refren tez pasuja bardziej te chwyty napisane przez Lori.

    Pozdrawiam:)
    · Zgłoś · 13 lat temu
  • Marcin
    edith
    CUDOWNA PIOSENKA - niesamowita-brak mi słów
    · Zgłoś · 14 lat temu
  • Marcin
    Olga x)
    A buu a na bas nic nie macie ? Pilnie potrzebuje to na gitarke basowa chcemy ten kawalek zagrac w skzole na wystepie mlodych talentow i bardzo mi potrzebny tab na bas. Ktos moze wiem gdzie znalezc albo ma ?! Prosze Was x)
    · Zgłoś · 14 lat temu
  • Marcin
    kłamilka
    bardzo klimatyczna i oryginalana piosenka,po prostu rewelacja.
    · Zgłoś · 14 lat temu
  • Lori
    E1:------------||
    H2:------1----||
    G3:---2---2--||x6
    D4:-2---------||
    A5:------------||
    E6:------------||

    a teraz każdy takt gra sie podwójnie...

    E1:-------------|------0----|-----------|
    H2:--------1---|----1---0-|---0-3-0-|
    G3:----2----2-|-0---------|-0---------|
    D4:-3----------|------------|-----------|
    A5:-------------|------------|-----------|
    E6:-------------|------------|-----------|

    i tu też podwójnie...

    E1|-----------|------------|------0-----|-----------|
    H2|------3---|-----1-----|----1---0--|----0-3-0-|
    G3|---2---2-|---2---2---|-0----------|-0---------|
    D4|-3--------|-3---------|-------------|------------|
    A5|-----------|------------|-------------|------------|
    E6|-----------|------------|-------------|------------|

    na podstawie tego można zagrać wstęp... ten motyw powtarza sie praktycznie przez całą piosenke, wiec chyba dacie sobie rade :D

    i mam malutkie zastrzeżenia co do chwytów w refrenie...
    na mój słuch bez 'd' brzmi lepiej...
    Jesień trwa - aC
    Rdzawych liści czas, G
    Kaloszy, peleryn i mgły Fa
    Jesień trwa -aC
    Szpetnej aury czas G
    Pod płaszcze się pcha, F
    Wyziębia nam serca - wiatr Fa
    · Zgłoś · 14 lat temu
Wszystkie komentarze