Dziewczyny Kazik

riff number one : intros & podklad pod solo
E|-------------------------------------------|
B|-------------------------------------------|
G|-------------------------------------------|
D|--7/999----7/999----5---7---9--12----9-----|
A|--5/777----5/777----3---5---7--10----7-----|
E|-------------------------------------------|

pre verse riff:
E|-------------------------------------------|
B|-------------------------------------------|
G|-------------------------------------------|
D|-------------------------------------------|
A|--5h7--5h7--5h7--5h7--557--5h7--5h7--5h7~--|
E|-------------------------------------------|


main/verse riff (chyba graja tu trzy gitary,ale nie dam glowy za 3-cia)
gtr1
E|-------------------------|
B|-------------------------|
G|-------------------------|
D|-------------------------|
A|-77777777777777777777777-|
E|-00000000000000000000000-|
gtr2
E|-------------------------|
B|-------------------------|
G|-------------------------|
D|-------------------------|
A|-22--22--22-2-2----------|
E|-00--00--00-0-0----------|
gtr3(????)
E|-------------------------|
B|-------------------------|
G|-------------------------|
D|-------------------------|
A|-22222222222222222222222-|
E|-00000000000000000000000-|

chorzus:

E|----------------------------------|
B|----------------------------------|
G|----------------------------------|
D|----------------------------------|
A|-2---4-5-\---2---9-8----22-5-7----|
E|-0---2-3-\---0---7-6----00-3-5----|
--------------------------------------------------------------------------------

Oceń to opracowanie
Kontrybucje:
Redakcja
Redakcja
anonim
  • Anonimowy użytkownik
    Renegat 16 lat temu

    tekst jest świetny... i ile w nim prawdy:P pozdrawiam