Ass Itch - bass KoRn

Tekst piosenki

  • Tekst piosenki damballa

Verse
F|--------|
C|--------|
G|--------|
D|--------|
A|-00-000-|

Pre - Chorus
F|---------------------------------------------------|
C|---------------------------------------------------|
G|---------------------------------------------------|
D|---------------------------------------------------|
A|-xxxxxxxxxxxxxxxxxxxxxxxxxxxxxxxxxxxxxxxxxxxxxxxxx-|

Chorus
F|------------|
C|------------|
G|------------|
D|------------|
A|--0-0-2-32-|

Pre - verse
F|---------------|
C|---------------|
G|---------------|
D|---------------|
A|-00-00-00-00-0-|

Bridge
F|-----------------------------------------------------------|
C|-----------------------------------------------------------|
G|-------------15-14-13-12-----------15-14-13-12-------------|
D|-------------------------15-14-0---------------15-14-13-12-|
A|-0~~~-9---0---------------------0--------------------------|

Heavy Bridge
F|---------------------|
C|---------------------|
G|---------------------|
D|---------------------|
A|-3/4-3/4-3/4-3/4-3-4-|

After Heavy Bridge
F|------------------|
C|------------------|
G|------------------|
D|------------------|
A|-00-000-000-000-0-|

Outro:
F|---------------------|
C|---------------------|
G|---------------------|
D|---------------------|
A|-3/4-3/4-3/4-3/4-3-4-|



Oceń to opracowanie
Kontrybucje:
damballa
damballa
anonim