Justin KoRn



Justin - Guitar Tab
1 Transcriptions

--------------------------------------------------------------

Transcribed by Fred Salas

6-string guitar tuned down 1 whole step
(low to high: A D G C F A)


Intro (w/ some wah and other pedal)

|| ----------------------------------------------
|| ----------------------------------------------
|| ----------------------------------------------
|| ----------------------------------------------
|| ----------------------------------------------
|| --15p12--0-12-15p12--0--0--14p11-0--14p11-----

Easy part (chorus) after.."fuck all that bullshit!!"

|| ------------------------------------------------------------
|| -------------------------------------(pm)----------------
|| ---0-0--0--0-0-0--0--000-0--0--0-0-0--6-0-6--- repeat

Riff 1, after chorus
I dont know the high part, but the other part goes like this

**play this with the intro with a clean tone

|| ------------------------------------------------------
|| --------------------------------------------14--------
|| ---------------------------------------11-------------
|| ------------------------------------------------------ repeat
|| ---------------------------------4-------------------- til chorus
|| ---(bass line)-3--3-2---------------------------------

Chorus..

Riff 1 again

Chorus... then

Bass plays this

Riff 2
|| ---------------------------------------------------
|| ---------------------------------------------------
|| ---------------------------------------------------
|| --0----6--5--3--0-2-3--0-6--5--3--0-2-3-- repeat.

Guitars play this, plus some fucked up effects

|| ---------------------------------------------------
|| ---------------------------------------------------
|| ---0---6--5--3--7-0-7---0-6--5--3--7-0-7- repeat..

Then play intro again..

Then chorus..

Then at about the 3:17 mark

|| ----------------------------------
|| ----------4-(bend up)-------------
|| ----------------------------------
|| --------------------------3-------
|| --------------------------3------- (heavy palm mute)
|| ---0-0-0--------0-0-0-0---1-------

Repeat this and play chorus again.. then riff 1 again till end
of song...


Oceń to opracowanie
Kontrybucje:
s314ryt
s314ryt
anonim