0
0

Vademecum skauta Lady Pank

Tekst piosenki i chwyty na gitarę

  • Chwyty na gitarę krzysiek.b5
    59 ulubionych


Nie pamiętam od kiedy /h e D A/
Tak mnie nagle pokochał świat
Wyciągając wciąż z biedy
Całą masą bezcennych rad
Ciągle ktoś mnie poucza
Z różnych ambon i z różnych stron
Stale w uszach mi buczy
Jednostajny piskliwy ton

Szanuj czas i pieniądz
Zęby myj, zbieraj złom
Dobry bądź dla zwierząt
One też kochać Ciebie chcą

Noś garnitur w niedziele
Nie rwij jabłek z nie swoich drzew
Bądź pokorny jak ciele
Wygrasz więcej gdy myślisz mniej

Szanuj czas...

Nie ma dnia bez nauki od rana /D A h G/
Nie ma szansy ucieczki na aut
Trzeba łykać to masło maślane
Honorowo jak skaut /D A h A/

Ciągle gdzieś tam się biedzą
Zawsze chętni by pianę pić
Tacy co lepiej wiedzą
Jak wypada poprawni żyć

Szanuj czas...

Wstęp
x4 ostatni raz grany jest bez 7 , zamiast niej :
-------------------------------------------------|---------------
-------------------------------------------------|---------------
----------4---2------------------------7---6-----|---------------
------4------------4---2---0-------7-----------7-|---7---7-------
---2----------------------------5----------------|---7---7-------
-------------------------------------------------|---5---5-------

W zwrotce jedna gitara gra zwykle akordy, druga razem z basem gra :
Gitara 1
---------------------------------------
---------------------------------------
---------------------------------------
---------9----7------------------------
-----9--------------9----7-------------
--7---------------------------5---5----

Gitara 2
------------------------7---7-------5---5------5----------
------------7---7-------8---8-------7---7------7--5---5---
------------7---7-------9---9-------7---7------7--6---6---
------------9---9-------9---9-------7---7------7--7---7---
------------9---9-------7---7-------5---5------5--7---7---
------------7---7---------------------------------5---5---

Refren ( Nie ma dnia, bez nauki od rana ... )
x3
---------------------------------------------------------
----------7--------------5--------------7------------3---
-------7--------------6--------------7------------4------
----7--------------7--------------9------------5---------
-5-------------------------------------------------------
---------------5-------------7------------3--------------

Za czwartym razem gramy:

--------------------------------------------------
---------7----------5-----------7-----------------
-------7----------6-----------7-------------------
-----7---------7-----------9----------------------
---5--------------------------------9---9-9---7---
-------------5----------7-----------7---7-7---5---


Zakończenie grane na koncertach :
kilka razy
---------7-------------7-------------7---------|-------------------
------------10------------10-----------10------|-------------------
-----9----------9--------------9-----------9---|-------------------
---7-------------------------------------------|-----------2-------
-9---------------------------------------------|-------3-------5---
-----------------------------------------------|----5--------------


Oceń to opracowanie
Ocena czytelników: Niczego sobie+ 20 głosów
Kontrybucje:
krzysiek.b5
krzysiek.b5
anonim