In The End Linkin Park

Piano Intro(clean)

Dis|---------------------|
B |---------------------|
Gb|---4-4---------------|
Db|-2-----5-4-4-4-4-5---|
Gis|---------------------|
Db|---------------------|

Verse(distortion)-(notes in parentheses are clean)

Eb|-----------------7*----------12*---|
Bb|-------------7*---------7*---------|
Gb|-(4*)-(5*)----------5*-------------|
Cis|-----------------------------------|
Gis|-----------------------------------|
Db|-----------------------------------|

Chorus(distortion)-(In the background
the DJ plays the verse)

Dis|---------------------|
B |---------------------|
Fis|---------------------|
Db|-2---5---0-------6---|
Ab|-2---3---0---9---6---|
Db|-2-------0---7---6---|

Bridge(distortion)

Dis|---------------------------|
B |---------------------------|
Fis|---------------------------|
Db|-2-2-2-5-5-5-0-0-0-----6---|
Ab|-2-2-2-3-3-3-0-0-0-9-9-6---|
Db|-2-2-2-------0-0-0-7-7-6---|

Piano Outro(clean)

Eb|---------------------0-2-3-2---|
Bb|-------------------0-----------|
Gb|---4-4-------------------------|
Db|-2-----5-4-4-4-4-5-------------|
Gis|-------------------------------|
Db|-------------------------------|


Oceń to opracowanie
Ocena czytelników: Słaby+ 2 głosy
Kontrybucje:
Kurt Cobain
Kurt Cobain
anonim