0
0

Numb Linkin Park

Linkin Park - Numb
Tabbed by Amelia Watt
Tuning (low to high) Db, Ab, Db, Gb, Bb, Dis (C#, G#, C#, F#, A#, Dis)

Intro (sample)
Eb ------------15--18--17--------------18--17--13----
Bb �15-18-15----------------15-18-15-----------------
Fis --------------------------------------------------
Cis --------------------------------------------------
Gis --------------------------------------------------
Db --------------------------------------------------

Guitar 1 (distortion)
Dis ---------------------------------------
Bb ---------------------------------------
FisDb [---------------------------------------]--5--gradually increase volume---------
Gis ---------------------------------------
Cis ---------------------------------------

Dis -------------------------
Bb -------------------------
FisDb [-------------------------]--5----1----8----3-------
Ab --5----1----8----3-------
Db --5----1----8----3-------

Verse (Piano but I just play clean guitar)
Guitar 2 (clean)
DisBb [----------------------------]--3-------------------------
Gb --0--0-0-0-3----7----5------ X2
Db -----------1----5----7------
Gis ----------------------------
Db ----------------------------

Pre � Chorus
Guitar 2
DisBb [----------------------------------------------------]----3------3-------3-----3--3-------3-------3-------
Gb --0--0-0-2---0-0-3---0-0-3----0-0-0---0-0-2---0-0---
Db -----------------5----------------------------------
Gis ----------------------------------------------------
Db ----------------------------------------------------

Chorus
Guitar 1
Dis --------------------------------------
Bb --------------------------------------
FisDb [--------------------------------------]--5--gradually increase volume--------
Gis --------------------------------------
Cis --------------------------------------

Dis ------------------------
Bb ------------------------
FisDb [------------------------]--5----1----8----3------
Ab --5----1----8----3------
Db --5----1----8----3------

Guitar 2 (clean)
DisBb [------------------------------------]--3---3---3---4---3---3---1---1-----
Gb ----0---0---0---0---0---0---0---0---
Db ------------------------------------ repeat
Gis ------------------------------------
Db ------------------------------------

Verse 2
Guitar 2
DisBb [-----------------------------------------------------]-3------3-----3-----3-----3-----3----3-3----1-3------
Gb -0-0-0-3-0-0-5-0-0-2-0-0-0-0-0-3-0-0-3--0-0-2---0-0--
Cis -----------------------------------------------------
Gis -----------------------------------------------------
Db -----------------------------------------------------

Pre � Chorus, Chorus

Bridge
Guitar 1
Dis ----------------------------------------------
Bb ----------------------------------------------
FisDb [----------------------------------------------]--1----3----5--7--8--0--1----3----0-----0-----
Ab --1----3----5--7--8--0--1----3----0-----0-----
Db --1----3----5--7--8--0--1----3----0-----0-----

Guitar 2
DisBb [------------------------------------]--3---3---3---4---3---3---1---1-----
Gb ----0---0---0---0---0---0---0---0--- X3
Cis ------------------------------------
Gis ------------------------------------
Db ------------------------------------

DisBb [------------------------------------------]--3---3---1---1---------3---3---3---3-----
Gb ----0---0---0---0--X2-----0---0---0---0---
Cis ------------------------------------------
Gis ------------------------------------------
Db ------------------------------------------

Chorus with Intro sample
Outro � Intro sample


Oceń to opracowanie
Kontrybucje:
Kurt Cobain
Kurt Cobain
anonim