All within my hands Metallica

Tekst piosenki

  • Tekst piosenki nogciu
All within my hands
Squeeze it in, crush it down
All with my hands
Hold it dear, hold it suffocate

All within my hands
Love to death, smack you 'round & 'round and
All within my hands
Beware

Love is control
I'll die if I let go

Hate me now
Kill all within my hands
Hate me now
Crush all within my hands
Squeeze all within my hands
Choke all within my hands
Hate me now
Trap all within my hands
Hurry up and hate me now
Kill all within my hands

All within my hands
Take your fear, pump me up
All within my hands
Let you run, then I pull your leash

All within my hands
Under thumb, under to myself
All within my hands
Beware

Love is control
I'll die if I let go

Hate me now
Kill all within my hands
Hate me now
Crush all within my hands
Squeeze all within my hands
Choke all within my hands
Hate me now
Trap all within my hands
Hurry up and hate me now
Kill all within my hands again

I'll die if I let go
Control is love, love is control
I'll fall if I let go
Control is love, love is control

I will only let you breathe
My air that you receive
Then we'll see if I let you love me

Kill kill kill kill kill

Intro
Fast Rock Q=216
N.C. A5 D5 Gis5
4/4
Gtr I
PM-------------
W 8x E Q E Q E E
||-------------------||-||----------------|
||o-----------------o||-||o---------------|
||-------------------||-||----------------|
||-------------------||-||----------------|
||o-----------------o||-||o-7-7--0-0--6-6-|
||-------------------||-||--7-7--0-0--6-6-|
|
| Gtr II
| PM-------------
| E E E E E E E E 8x E Q E Q E E
||--x-x-x-x-x-x-x-x--||-||----------------|
||o-x-x-x-x-x-x-x-x-o||-||o---------------|
||-------------------||-||----------------|
||-------------------||-||----------------|
||o-----------------o||-||o-7-7--0-0--6-6-|
||-------------------||-||--7-7--0-0--6-6-|


D5 G5GbF5
-------|
+E E Q E E Q +W +W
|-----------------|------------|---------||
|-----------------|------------|--------o||
|-----------------|------------|---------||
|-----------------|------------|---------||
|-(6)-0-0--5-4-3--|-(3)--------|-(3)----o||
|-(6)-0-0--5-4-3--|-(3)--------|-(3)-----||
|
|------------|
| +E E Q E E Q +W +W
|-----------------|------------|---------||
|-----------------|------------|--------o||
|-----------------|------------|---------||
|-----------------|------------|---------||
|-(6)-0-0--5-4-3--|-(3)--------|-(3)----o||
|-(6)-0-0--5-4-3--|-(3)--------|-(3)-----||


    A5Gtrs D5I, IIGis5          D5  
E Q E Q E E +E E Q H 4x
||----------------|----------------||
||o---------------|---------------o||
||----------------|----------------||
||----------------|----------------||
||o-7-7--0-0--6-6-|-(6)-0-0-------o||
||--7-7--0-0--6-6-|-(6)-0-0--------||


A5 D5 Gis5 D5 N.C. A5 D5 Gis5 D5 N.C.
Gtr I
E Q E Q E E +E E Q E E E E E Q E Q E E +E E Q E E E E
|---------------|------------------|---------------|------------------|
|---------------|------------------|---------------|------------------|
|---------------|------------------|---------------|------------------|
|---------------|------------------|---------------|------------------|
|-7-7--0-0--6-6-|-(6)-0-0--x-x---x-|-7-7--0-0--6-6-|-(6)-0-0--x-x-x-x-|
|-7-7--0-0--6-6-|-(6)-0-0--x-x---x-|-7-7--0-0--6-6-|-(6)-0-0--x-x-x-x-|
|
| Gtr II
| E Q E Q E E +E E Q E E Q E Q E Q E E +E E Q E E Q
|---------------|------------------|---------------|------------------|
|---------------|------------------|---------------|------------------|
|---------------|------------------|---------------|------------------|
|---------------|------------------|---------------|------------------|
|-7-7--0-0--6-6-|-(6)-0-0--x-x-x---|-7-7--0-0--6-6-|-(6)-0-0--x-x-x---|
|-7-7--0-0--6-6-|-(6)-0-0--x-x-x---|-7-7--0-0--6-6-|-(6)-0-0--x-x-x---|


A5 D5 Gis5 D5 N.C. A5 D5 Gis5 D5 N.C.
E Q E Q E E +E E Q E E E E E Q E Q E E +E E Q E E E E
|---------------|------------------|---------------|--------------------------|
|---------------|------------------|---------------|--------------------------|
|---------------|------------------|---------------|--------------------------|
|---------------|------------------|---------------|--------------------------|
|-7-7--0-0--6-6-|-(6)-0-0--x-x---x-|-7-7--0-0--6-6-|-(6)-0-0---x---x---x---x--|
|-7-7--0-0--6-6-|-(6)-0-0--x-x---x-|-7-7--0-0--6-6-|-(6)-0-0---x---x---x---x--|
|
| E Q E Q E E +E E Q E E E E E Q E Q E E +E E Q E E E E
|---------------|------------------|---------------|--------------------------|
|---------------|------------------|---------------|--------------------------|
|---------------|------------------|---------------|----------<3>-<3>-<3>-<3>-|
|---------------|------------------|---------------|----------<3>-<3>-<3>-<3>-|
|-7-7--0-0--6-6-|-(6)-0-0--x-x-x-x-|-7-7--0-0--6-6-|-(6)-0-0------------------|
|-7-7--0-0--6-6-|-(6)-0-0--x-x-x-x-|-7-7--0-0--6-6-|-(6)-0-0------------------|


  A5E Q  D5E Q  Gis5E E   +E  D5E Q  D7H      A5E Q  D5E Q  Gis5E E   +E  D5E Q H
|---------------|---------------|---------------|---------------|
|---------------|---------------|---------------|---------------|
|---------------|---------------|---------------|---------------|
|---------------|---------------|---------------|---------------|
|-7-7--0-0--6-6-|-(6)-0-0-------|-7-7--0-0--6-6-|-(6)-0-0-------|
|-7-7--0-0--6-6-|-(6)-0-0-------|-7-7--0-0--6-6-|-(6)-0-0-------|
|
| E Q E Q E E +E E Q H E Q E Q E E +E E Q H
|---------------|---------------|---------------|---------------|
|---------------|---------------|---------------|---------------|
|---------------|----------5----|---------------|---------------|
|---------------|----------4----|---------------|---------------|
|-7-7--0-0--6-6-|-(6)-0-0-------|-7-7--0-0--6-6-|-(6)-0-0-------|
|-7-7--0-0--6-6-|-(6)-0-0-------|-7-7--0-0--6-6-|-(6)-0-0-------|


  A5E Q  D5E Q  Gis5E E   +E  D5E Q  G5/DH    A5E Q  D5E Q  Gis5E E   +E  D5E Q H
|---------------|---------------|---------------|---------------|
|---------------|---------------|---------------|---------------|
|---------------|---------------|---------------|---------------|
|---------------|---------------|---------------|---------------|
|-7-7--0-0--6-6-|-(6)-0-0-------|-7-7--0-0--6-6-|-(6)-0-0-------|
|-7-7--0-0--6-6-|-(6)-0-0-------|-7-7--0-0--6-6-|-(6)-0-0-------|
|
| E Q E Q E E +E E Q H E Q E Q E E +E E Q H
|---------------|---------------|---------------|---------------|
|---------------|----------8----|---------------|---------------|
|---------------|----------7----|---------------|---------------|
|---------------|---------------|---------------|---------------|
|-7-7--0-0--6-6-|-(6)-0-0-------|-7-7--0-0--6-6-|-(6)-0-0-------|
|-7-7--0-0--6-6-|-(6)-0-0-------|-7-7--0-0--6-6-|-(6)-0-0-------|


    A5Gtrs D5I, IIGis5          D5              A5     D5     Gis5          D5        F5  
E Q E Q E E +E E Q H E Q E Q E E +E E Q Q Q
||----------------|----------------||---------------|-----------------|
||o---------------|---------------o||---------------|-----------------|
||----------------|----------------||---------------|-----------------|
||----------------|----------------||---------------|-----------------|
||o-7-7--0-0--6-6-|-(6)-0-0-------o||-7-7--0-0--6-6-|-(6)-0-0-----3---|
||--7-7--0-0--6-6-|-(6)-0-0--------||-7-7--0-0--6-6-|-(6)-0-0-----3---|


  Gtr I                        A5     D5     Gis5          D5  
+H. Q Q Q Q Q E Q E Q E E +E E Q H
|-------------|--------------|---------------|---------------|
|-------------|--------------|---------------|---------------|
|-------------|--------------|---------------|---------------|
|-------------|--------------|---------------|---------------|
|-(3)------3--|-3--3--3--3/--|-7-7--0-0--6-6-|-(6)-0-0-------|
|-(3)------3--|-3--3--3--3/--|-7-7--0-0--6-6-|-(6)-0-0-------|
|
| Gtr II
| PM----| PM
| +W Q Q Q Q E Q E Q E E +E E Q H
|-------------|--------------|---------------|---------------|
|-------------|--------------|---------------|---------------|
|-------------|--------------|---------------|---------------|
|-------------|--------------|---------------|---------------|
|-(3)---------|-3--3--3--3/--|---7--0-0--6-6-|-(6)-0-0-------|
|-(3)---------|-3--3--3--3/--|-7-7--0-0--6-6-|-(6)-0-0-------|


    d Gtr II
Q H Q H H
||--------------------|--------------------|
||o-------------------|--------------------|
||------17-------17---|-17-------17\-------|
||--------------------|--------------------|
||o-------------------|--------------------|
||--------------------|--------------------|
|
| Gtr IV
| W H H
||--------------------|--------------------|
||o-------------------|--------------------|
||--------------------|----------12--------|
||--------------------|-10-----------------|
||o-------------------|--------------------|
||--------------------|--------------------|
|
| Gtr III
| PM--------------------------------------
| E E E E E E E E E E E E E E E E
||--------------------|--------------------|
||o-------------------|--------------------|
||--------------------|--------------------|
||--------------------|--------------------|
||o-0-0--0-0-0-0--0-0-|--0-0-0-0--0--0-0-0-|
||--0-0--3-3-0-0--3-3-|--0-0-3-3--0--0-3-3-|


  Dsus2 Q H Q H H
|----------------------|-----------------------|
|----------------------|-----------------------|
|--------14-------14---|--14--------14\--------|
|----------------------|-----------------------|
|----------------------|-----------------------|
|----------------------|-----------------------|
|
| +W +W
|----------------------|-----------------------|
|----------------------|-----------------------|
|-(12)-----------------|-(12)------------------|
|----------------------|-----------------------|
|----------------------|-----------------------|
|----------------------|-----------------------|
|
|-------------------------------------------|
| E E E E E E E E E E E E E E E E
|----------------------|-----------------------|
|----------------------|-----------------------|
|----------------------|-----------------------|
|----------------------|-----------------------|
|---0--0--0-0-0-0--0-0-|---0--0-0-0--0--0-0-0--|
|---0--0--2-2-0-0--2-2-|---0--0-2-2--0--0-2-2--|


  Dsus4Q H Q H H
|-------------------|--------------------|
|-------------------|--------------------|
|-----12-------12---|-12-------12\-------|
|-------------------|--------------------|
|-------------------|--------------------|
|-------------------|--------------------|
|
| W H H
|-------------------|--------------------|
|-------------------|--------------------|
|-------------------|----------12--------|
|-------------------|-10-----------------|
|-------------------|--------------------|
|-------------------|--------------------|
|
| PM-------------------------------|
| E E E E E E E E E E E E E E E E
|-------------------|--------------------|
|-------------------|--------------------|
|-------------------|--------------------|
|-------------------|--0-0-5-5--0--0-5-5-|
|-0-0--0-0-0-0--0-0-|--0-0-0-0--0--0-0-0-|
|-0-0--5-5-0-0--5-5-|--0-0-5-5--0--0-5-5-|


  d Q H Q H H
|----------------------|-----------------------||
|----------------------|----------------------o||
|--------10-------10---|--10--------10\--------||
|----------------------|-----------------------||
|----------------------|----------------------o||
|----------------------|-----------------------||
|
| +W +W
|----------------------|-----------------------||
|----------------------|----------------------o||
|-(12)-----------------|-(12)------------------||
|----------------------|-----------------------||
|----------------------|----------------------o||
|----------------------|-----------------------||
|
| E E E E E E E E E E E E E E E E
|----------------------|-----------------------||
|----------------------|----------------------o||
|----------------------|-----------------------||
|---0--0--3-3-0-0--3-3-|---0--0-3-3--0--0-3-3--||
|---0--0--0-0-0-0--0-0-|---0--0-0-0--0--0-0-0-o||
|---0--0--3-3-0-0--3-3-|---0--0-3-3--0--0-3-3--||


Verse
    d Gtrs I, V                           Dsus2     
PM------------------------------------------------------------------|
||--E--E--E--E--E--E--E--E--|-E--E--E--E--E--E--E--E--|-E--E--E--E--E--E--E--E--|-E--E--E--E--E--E--E--E---|
||o-----------------|-----------------|-----------------|------------------|
||------------------|-----------------|-----------------|------------------|
||------------------|-----------------|-----------------|------------------|
||o-0-0-0-0-0-0-0-0-|-0-0-0-0-0-0-0-0-|-0-0-0-0-0-0-0-0-|-0-0-0-0-0-0-0-0--|
||--0-0-3-3-0-0-3-3-|-0-0-3-3-0-0-3-3-|-0-0-2-2-0-0-2-2-|-0-0-2-2-0-0-2-2--|


  Dsus4PM----------------------------------d --------------------------------|
|-E--E--E--E--E--E--E--E--|-E--E--E--E--E--E--E--E--|-E--E--E--E--E--E--E--E--|-E--E--E--E--E--E--E--E--|
|-----------------|-----------------|-----------------|-----------------|
|-----------------|-----------------|-----------------|-----------------|
|-----------------|-----------------|-----------------|-----------------|
|-0-0-0-0-0-0-0-0-|-0-0-0-0-0-0-0-0-|-0-0-0-0-0-0-0-0-|-0-0-0-0-0-0-0-0-|
|-0-0-5-5-0-0-5-5-|-0-0-5-5-0-0-5-5-|-0-0-3-3-0-0-3-3-|-0-0-3-3-0-0-3-3-|


  PM----------------------------------Dsus2--------------------------------|
|-E--E--E--E--E--E--E--E--|-E--E--E--E--E--E--E--E--|-E--E--E--E--E--E--E--E--|-E--E--E--E--E--E--E--E--|
|-----------------|-----------------|-----------------|-----------------|
|-----------------|-----------------|-----------------|-----------------|
|-----------------|-----------------|-----------------|-----------------|
|-0-0-0-0-0-0-0-0-|-0-0-0-0-0-0-0-0-|-0-0-0-0-0-0-0-0-|-0-0-0-0-0-0-0-0-|
|-0-0-3-3-0-0-3-3-|-0-0-3-3-0-0-3-3-|-0-0-2-2-0-0-2-2-|-0-0-2-2-0-0-2-2-|


  Dsus4PM----------------------------------d --------------------------------|
|-E--E--E--E--E--E--E--E--|-E--E--E--E--E--E--E--E--|-E--E--E--E--E--E--E--E--|-E--E--E--E--E--E--E--E--|
|-----------------|-----------------|-----------------|-----------------|
|-----------------|-----------------|-----------------|-----------------|
|-----------------|-----------------|-----------------|-----------------|
|-0-0-0-0-0-0-0-0-|-0-0-0-0-0-0-0-0-|-0-0-0-0-0-0-0-0-|-0-0-0-0-0-0-0-0-|
|-0-0-5-5-0-0-5-5-|-0-0-5-5-0-0-5-5-|-0-0-3-3-0-0-3-3-|-0-0-3-3-0-0-3-3-|


Interlude
  d Gtr III                             Dsus2     
|-E--E--E5-E--E--E--E5-E--|-E--E--E5-E--E--E--E5-E--|-E--E--E5-E--E--E--E5-E--|-E--E--E5-E--E--E--E5-E--|
|---6---6---6---6-|---6---6---6---6-|---5---5---5---5-|---5---5---5---5-|
|-7-------7-------|-7-------7-------|-7-------7-------|-7-------7-------|
|-----------------|-----------------|-----------------|-----------------|
|-----------------|-----------------|-----------------|-----------------|
|-----------------|-----------------|-----------------|-----------------|


Dsus4
|-E--E--E5-E--E--E--E5-E--|-E--E--E5-E--E--E--E5-E--|
|---8---8---8---8-|---8---8---8---8-|
|-7-------7-------|-7-------7-------|
|-----------------|-----------------|
|-----------------|-----------------|
|-----------------|-----------------|


Dm N.C.
E E E E E E Q E E q E E Q Q Q H
|-----5-------5--|---------------|------------||
|---6---6---6----|-6p5-6--6p5----|------------||
|-7-------7------|------------7--|-5--7-------||
|----------------|---------------|------------||
|----------------|---------------|------------||
|----------------|---------------|------------||


Verse
  D5GtrF5s I, II                     E5  
Q q q q q q q q Q q q q q q q q
|-------------|-------------|-------------|-------------|
|-------------|-------------|-------------|-------------|
|-------------|-------------|-------------|-------------|
|-------------|-------------|-------------|-------------|
|-0--3--3--3--|-3--3--3--3--|-3--2--2--2--|-2--2--2--2--|
|-0--3--3--3--|-3--3--3--3--|-3--2--2--2--|-2--2--2--2--|


G5 F5 E5 F5 E5D5
PM---------|
Q q q q q q q q Q q q q E E q E E Q
|-------------|-------------|-------------|---------------|
|-------------|-------------|-------------|---------------|
|-------------|-------------|-------------|---------------|
|-------------|-------------|-------------|---------------|
|-2--5--5--5--|-5--5--5--5--|-5--3--3--3--|-2-2-3--3-2-0--|
|-2--5--5--5--|-5--5--5--5--|-5--3--3--3--|-2-2-3--3-2-0--|


  Q  F5q  q  q    q  q  q  q    Q  E5q q q q q q q
|-------------|-------------|-------------|-------------|
|-------------|-------------|-------------|-------------|
|-------------|-------------|-------------|-------------|
|-------------|-------------|-------------|-------------|
|-0--3--3--3--|-3--3--3--3--|-3--2--2--2--|-2--2--2--2--|
|-0--3--3--3--|-3--3--3--3--|-3--2--2--2--|-2--2--2--2--|


G5 F5 E5 F5 E5D5
PM---------|
Q q q q q q q q Q q q q E E q E E Q
|-------------|-------------|-------------|---------------||
|-------------|-------------|-------------|---------------||
|-------------|-------------|-------------|---------------||
|-------------|-------------|-------------|---------------||
|-2--5--5--5--|-5--5--5--5--|-5--3--3--3--|-2-2-3--3-2-0--||
|-2--5--5--5--|-5--5--5--5--|-5--3--3--3--|-2-2-3--3-2-0--||


G5AbA5 G5AbA5 F5GbG5D5 G5AbA5 G5AbA5 F5GbG5D5
Gtr I
PM PM PM------| PM PM PM------|
|-E--E--E--E--E--E--E--E--|-E--E--E--E--E--E--E--E--|-E--E--E--E--E--E--E--E--|-E--E--E--E--E--E--E--E--||
|-----------------|-----------------|-----------------|-----------------||
|-----------------|-----------------|-----------------|-----------------||
|-----------------|-----------------|-----------------|-----------------||
|-5-6-7---5-6-7---|-3-4-5-----------|-5-6-7---5-6-7---|-3-4-5-----------||
|-5-6-7-0-5-6-7-0-|-3-4-5-0-0-0-0-0-|-5-6-7-0-5-6-7-0-|-3-4-5-0-0-0-0-0-||
|
| Gtr II
| E E E E E E E E E E E E E E E E E E E E E E E E E E E E E E E E
|-----------------|-----------------|-----------------|-----------------||
|-----------------|-----------------|-----------------|-----------------||
|-----------------|-----------------|-----------------|-----------------||
|-----------------|-----------------|-----------------|-----------------||
|-5-6-7---5-6-7---|-3-4-5-----------|-5-6-7---5-6-7---|-3-4-5-----------||
|-5-6-7-0-5-6-7-0-|-3-4-5-0-0-0-0-0-|-5-6-7-0-5-6-7-0-|-3-4-5-0-0-0-0-0-||


Pre-chorus
G5AbA5 G5AbA5 F5GbG5D5 G5AbA5 G5AbA5 F5GbG5D5
PM PM PM------| PM PM PM------|
|-E--E--E--E--E--E--E--E--|-E--E--E--E--E--E--E--E--|-E--E--E--E--E--E--E--E--|-E--E--E--E--E--E--E--E--|
|-----------------|-----------------|-----------------|-----------------|
|-----------------|-----------------|-----------------|-----------------|
|-----------------|-----------------|-----------------|-----------------|
|-5-6-7---5-6-7---|-3-4-5-----------|-5-6-7---5-6-7---|-3-4-5-----------|
|-5-6-7-0-5-6-7-0-|-3-4-5-0-0-0-0-0-|-5-6-7-0-5-6-7-0-|-3-4-5-0-0-0-0-0-|
|
| E E E E E E E E E E E E E E E E E E E E E E E E E E E E E E E E
|-----------------|-----------------|-----------------|-----------------|
|-----------------|-----------------|-----------------|-----------------|
|-----------------|-----------------|-----------------|-----------------|
|-----------------|-----------------|-----------------|-----------------|
|-5-6-7---5-6-7---|-3-4-5-----------|-5-6-7---5-6-7---|-3-4-5-----------|
|-5-6-7-0-5-6-7-0-|-3-4-5-0-0-0-0-0-|-5-6-7-0-5-6-7-0-|-3-4-5-0-0-0-0-0-|


G5AbA5 G5AbA5 F5GbG5D5 G5AbA5 G5AbA5 F5GbG5 Dissus2
PM PM PM------| PM PM PM
|-E--E--E--E--E--E--E--E--|-E--E--E--E--E--E--E--E--|-E--E--E--E--E--E--E--E--|-E--E--E--E--E--E--E--E--||
|-----------------|-----------------|-----------------|-----------------||
|-----------------|-----------------|-----------------|-----------------||
|-----------------|-----------------|-----------------|-----------------||
|-5-6-7---5-6-7---|-3-4-5-----------|-5-6-7---5-6-7---|-3-4-5---1-1-1-1-||
|-5-6-7-0-5-6-7-0-|-3-4-5-0-0-0-0-0-|-5-6-7-0-5-6-7-0-|-3-4-5-0-1-1-1-1-||
|
| E E E E E E E E E E E E E E E E E E E E E E E E E E E E E E E E
|-----------------|-----------------|-----------------|-----------------||
|-----------------|-----------------|-----------------|-----------------||
|-----------------|-----------------|-----------------|-----------------||
|-----------------|-----------------|-----------------|---------3-3-3-3-||
|-5-6-7---5-6-7---|-3-4-5-----------|-5-6-7---5-6-7---|-3-4-5---1-1-1-1-||
|-5-6-7-0-5-6-7-0-|-3-4-5-0-0-0-0-0-|-5-6-7-0-5-6-7-0-|-3-4-5-0-1-1-1-1-||


Half time Q=108
$
G5AbA5D5 AbA5F5 N.C.
PM|
E E E E +E E E E +E E +E E e E +E E
|-------------------|---------------------------|
|-------------------|---------------------------|
|-------------------|---------------------------|
|-------------------|---------------------------|
|-5-6-7-0-(0)-6-7-3-|-(3)-----------------------|
|-5-6-7-0-(0)-6-7-3-|-(3)-5b7r(5)-3-5-5b7r(5)-3-|
|
| PM
| E E E E +E E E E +E E +E E e E +E E
|-------------------|---------------------------|
|-------------------|---------------------------|
|-------------------|---------------------------|
|-------------------|---------------------------|
|-5-6-7-0-(0)-6-7-3-|-(3)-5b7r(5)-3-5-5b7r(5)-3-|
|-5-6-7-0-(0)-6-7-3-|-(3)-5b7r(5)-3-5-5b7r(5)-3-|


G5AbA5D5 AbA5F5 N.C.
PM| PM|
E E E E +E E E E +E E +E E e E +E E
|-------------------|---------------------------||
|-------------------|---------------------------||
|-------------------|---------------------------||
|-------------------|---------------------------||
|-5-6-7-0-(0)-6-7-3-|-(3)-----------------------||
|-5-6-7-0-(0)-6-7-3-|-(3)-5b7r(5)-3-5-5b7r(5)-3-||
|
| E E E E +E E E E +E E +E E e E +E E
|-------------------|---------------------------||
|-------------------|---------------------------||
|-------------------|---------------------------||
|-------------------|---------------------------||
|-5-6-7-0-(0)-6-7-3-|-(3)-5b7r(5)-3-5-5b7r(5)-3-||
|-5-6-7-0-(0)-6-7-3-|-(3)-5b7r(5)-3-5-5b7r(5)-3-||


Chorus
G5AbA5D5 AbA5F5 N.C.
PM|
E E E E +E E E E +E E +E E e E +E E
|-------------------|---------------------------|
|-------------------|---------------------------|
|-------------------|---------------------------|
|-------------------|---------------------------|
|-5-6-7-0-(0)-6-7-3-|-(3)-----------------------|
|-5-6-7-0-(0)-6-7-3-|-(3)-5b7r(5)-3-5-5b7r(5)-3-|
|
| PM
| E E E E +E E E E +E E +E E e E +E E
|-------------------|---------------------------|
|-------------------|---------------------------|
|-------------------|---------------------------|
|-------------------|---------------------------|
|-5-6-7-0-(0)-6-7-3-|-(3)-5b7r(5)-3-5-5b7r(5)-3-|
|-5-6-7-0-(0)-6-7-3-|-(3)-5b7r(5)-3-5-5b7r(5)-3-|


G5AbA5D5 AbA5F5 A5
PM| PM|
E E E E +E E E E +E E +E E e E +E E
|-------------------|---------------------------|
|-------------------|---------------------------|
|-------------------|---------------------------|
|-------------------|---------------------------|
|-5-6-7-0-(0)-6-7-3-|-(3)-----------------------|
|-5-6-7-0-(0)-6-7-3-|-(3)-5b7r(5)-3-5-5b7r(5)-3-|
|
| E E E E +E E E E +E E +E E e E +E E
|-------------------|---------------------------|
|-------------------|---------------------------|
|-------------------|---------------------------|
|-------------------|---------------------------|
|-5-6-7-0-(0)-6-7-3-|-(3)-5b7r(5)-3-5-5b7r(5)-3-|
|-5-6-7-0-(0)-6-7-3-|-(3)-5b7r(5)-3-5-5b7r(5)-3-|


A5 D5 Gis5 D5 G5GbF5
PM--------------------|
S E S E S S +S S E S S E +W
|---------------------------|-----------------------------|
|---------------------------|-----------------------------|
|---------------------------|-----------------------------|
|---------------------------|-----------------------------|
|-7-7-0-0-6-6-(6)-0-0-5-4-3-|-(3)-------------------------|
|-7-7-0-0-6-6-(6)-0-0-5-4-3-|-(3)-------------------------|
|
| PM--------------------|
| S E S E S S +S S E S S E +Q +E. S +E. +S +E E
|---------------------------|----------3b4==(3)r(3)-(3)---|
|---------------------------|-----------------------------|
|---------------------------|-----------------------------|
|---------------------------|-----------------------------|
|-------------------------3-|-(3)--(3)--------------------|
|-7-7-0-0-6-6-(6)-0-0-5-4-3-|-(3)--(3)--------------------|


A5 D5 Gis5 D5 G5GbF5
PM--------------------|
S E S E S S +S S E S S E +W
|---------------------------|-----------------------------|
|---------------------------|-----------------------------|
|---------------------------|-----------------------------|
|---------------------------|-----------------------------|
|-7-7-0-0-6-6-(6)-0-0-5-4-3-|-(3)-------------------------|
|-7-7-0-0-6-6-(6)-0-0-5-4-3-|-(3)-------------------------|
|
| PM--------------------|
| S E S E S S +S S E S S E +Q +E. S +E. +S +E E
|---------------------------|----------3b4==(3)r(3)-(3)---|
|---------------------------|-----------------------------|
|---------------------------|-----------------------------|
|---------------------------|-----------------------------|
|-------------------------3-|-(3)--(3)--------------------|
|-7-7-0-0-6-6-(6)-0-0-5-4-3-|-(3)--(3)--------------------|


G5AbA5D5 AbA5F5 N.C.
PM|
E E E E +E E E E +E E +E E e E +E E
|-------------------|---------------------------|
|-------------------|---------------------------|
|-------------------|---------------------------|
|-------------------|---------------------------|
|-5-6-7-0-(0)-6-7-3-|-(3)-----------------------|
|-5-6-7-0-(0)-6-7-3-|-(3)-5b7r(5)-3-5-5b7r(5)-3-|
|
| PM
| E E E E +E E E E +E E +E E e E +E E
|-------------------|---------------------------|
|-------------------|---------------------------|
|-------------------|---------------------------|
|-------------------|---------------------------|
|-5-6-7-0-(0)-6-7-3-|-(3)-5b7r(5)-3-5-5b7r(5)-3-|
|-5-6-7-0-(0)-6-7-3-|-(3)-5b7r(5)-3-5-5b7r(5)-3-|


G5AbA5D5 AbA5F5 N.C.
PM| PM|
E E E E +E E E E +E E +E E e E +E E
|-------------------|---------------------------|
|-------------------|---------------------------|
|-------------------|---------------------------|
|-------------------|---------------------------|
|-5-6-7-0-(0)-6-7-3-|-(3)-----------------------|
|-5-6-7-0-(0)-6-7-3-|-(3)-5b7r(5)-3-5-5b7r(5)-3-|
|
| E E E E +E E E E +E E +E E e E +E E
|-------------------|---------------------------|
|-------------------|---------------------------|
|-------------------|---------------------------|
|-------------------|---------------------------|
|-5-6-7-0-(0)-6-7-3-|-(3)-5b7r(5)-3-5-5b7r(5)-3-|
|-5-6-7-0-(0)-6-7-3-|-(3)-5b7r(5)-3-5-5b7r(5)-3-|


Faster Q=128
 2D5/2
PM PM
q Q E E E E E E E E E E Q
|-------------------|------------------------|
|-------------------|------------------------|
|-------------------|------------------------|
|-------------------|------------------------|
|-0--0--x-x-------0-|-x-x-------0-x-x--------|
|-0--0--x-x-------0-|-x-x-------0-x-x--------|
|
| q Q Q Q Q Q Q Q
|-----------10------|-----10----------10-----|
|-----------13b15---|-----13b15-------13b15--|
|-------------------|------------------------|
|-------------------|------------------------|
|-0--0--------------|------------------------|
|-0--0--------------|------------------------|


1.
To Coda
PM PM PM
q Q E E E E E E E E E E E E q H.
|-------------------|-------------------------|----------||
|-------------------|-------------------------|----------||
|-------------------|-------------------------|----------||
|-------------------|-------------------------|----------||
|-0--0--x-x-------0-|-x-x-------0-x-x-------0-|-0--0-----||
|-0--0--x-x-------0-|-x-x-------0-x-x-------0-|-0--0-----||
|
| q Q Q Q Q Q Q Q q H.
|-------------------|-------------------------|----------||
|-----------10------|-----10----------10------|----------||
|-----------12b14---|-----12b14-------12b14---|----------||
|-------------------|-------------------------|----------||
|-0-----------------|-------------------------|-0--0-----||
|-0-----------------|-------------------------|-0--0-----||


Interlude
Tempo I Q=216
  A5E Q  D5E Q  Gis5E E   +E  D5E Q  G5/DH    A5E Q  D5E Q  Gis5E E   +E  D5E Q H
|---------------|---------------|---------------|---------------|
|---------------|---------------|---------------|---------------|
|---------------|---------------|---------------|---------------|
|---------------|---------------|---------------|---------------|
|-7-7--0-0--6-6-|-(6)-0-0-------|-7-7--0-0--6-6-|-(6)-0-0-------|
|-7-7--0-0--6-6-|-(6)-0-0-------|-7-7--0-0--6-6-|-(6)-0-0-------|
|
| E Q E Q E E +E E Q H E Q E Q E E +E E Q H
|---------------|---------------|---------------|---------------|
|---------------|----------8----|---------------|---------------|
|---------------|----------7----|---------------|---------------|
|---------------|---------------|---------------|---------------|
|-7-7--0-0--6-6-|-(6)-0-0-------|-7-7--0-0--6-6-|-(6)-0-0-------|
|-7-7--0-0--6-6-|-(6)-0-0-------|-7-7--0-0--6-6-|-(6)-0-0-------|


  A5E Q  D5E Q  Gis5E E   +E  D5E Q  H      A5E Q  D5E Q  Gis5E E   +E  D5E Q H
|---------------|---------------|---------------|---------------|
|---------------|---------------|---------------|---------------|
|---------------|---------------|---------------|---------------|
|---------------|---------------|---------------|---------------|
|-7-7--0-0--6-6-|-(6)-0-0-------|-7-7--0-0--6-6-|-(6)-0-0-------|
|-7-7--0-0--6-6-|-(6)-0-0-------|-7-7--0-0--6-6-|-(6)-0-0-------|
|
| E Q E Q E E +E E Q H E Q E Q E E +E E Q H
|---------------|---------------|---------------|---------------|
|---------------|---------------|---------------|---------------|
|---------------|---------------|---------------|---------------|
|---------------|---------------|---------------|---------------|
|-7-7--0-0--6-6-|-(6)-0-0-------|-7-7--0-0--6-6-|-(6)-0-0-------|
|-7-7--0-0--6-6-|-(6)-0-0-------|-7-7--0-0--6-6-|-(6)-0-0-------|


  d Gtr II
Q H Q H H
|-------------------|--------------------|
|-------------------|--------------------|
|-----17-------17---|-17-------17\-------|
|-------------------|--------------------|
|-------------------|--------------------|
|-------------------|--------------------|
|
| Gtr IV
| W H H
|-------------------|--------------------|
|-------------------|--------------------|
|-------------------|----------12--------|
|-------------------|-10-----------------|
|-------------------|--------------------|
|-------------------|--------------------|
|
| Gtr III
| PM--------------------------------------
| E E E E E E E E E E E E E E E E
|-------------------|--------------------|
|-------------------|--------------------|
|-------------------|--------------------|
|-------------------|--------------------|
|-0-0--0-0-0-0--0-0-|--0-0-0-0--0--0-0-0-|
|-0-0--3-3-0-0--3-3-|--0-0-3-3--0--0-3-3-|


  Dsus2 Q H Q H H
|----------------------|----------------------|
|----------------------|----------------------|
|--------14-------14---|--14--------14\-------|
|----------------------|----------------------|
|----------------------|----------------------|
|----------------------|----------------------|
|
| +W +W
|----------------------|----------------------|
|----------------------|----------------------|
|-(12)-----------------|-(12)-----------------|
|----------------------|----------------------|
|----------------------|----------------------|
|----------------------|----------------------|
|
|-------------------------------------------|
| E E E E E E E E E E E E E E E E
|----------------------|----------------------|
|----------------------|----------------------|
|----------------------|----------------------|
|----------------------|----------------------|
|---0--0--0-0-0-0--0-0-|---0--0-0-0--0--0-0-0-|
|---0--0--2-2-0-0--2-2-|---0--0-2-2--0--0-2-2-|


  Dsus4Q H Q H H
|-------------------|--------------------|
|-------------------|--------------------|
|-----12-------12---|-12-------12\-------|
|-------------------|--------------------|
|-------------------|--------------------|
|-------------------|--------------------|
|
| W H H
|-------------------|--------------------|
|-------------------|--------------------|
|-------------------|----------12--------|
|-------------------|-10-----------------|
|-------------------|--------------------|
|-------------------|--------------------|
|
| PM-------------------------------|
| E E E E E E E E E E E E E E E E
|-------------------|--------------------|
|-------------------|--------------------|
|-------------------|--------------------|
|-------------------|--0-0-5-5--0--0-5-5-|
|-0-0--0-0-0-0--0-0-|--0-0-0-0--0--0-0-0-|
|-0-0--5-5-0-0--5-5-|--0-0-5-5--0--0-5-5-|


  d Q H Q H H
|----------------------|-----------------------||
|----------------------|----------------------o||
|--------10-------10---|--10--------10\--------||
|----------------------|-----------------------||
|----------------------|----------------------o||
|----------------------|-----------------------||
|
| +W +W
|----------------------|-----------------------||
|----------------------|----------------------o||
|-(12)-----------------|-(12)------------------||
|----------------------|-----------------------||
|----------------------|----------------------o||
|----------------------|-----------------------||
|
| E E E E E E E E E E E E E E E E
|----------------------|-----------------------||
|----------------------|----------------------o||
|----------------------|-----------------------||
|---0--0--3-3-0-0--3-3-|---0--0-3-3--0--0-3-3--||
|---0--0--0-0-0-0--0-0-|---0--0-0-0--0--0-0-0-o||
|---0--0--3-3-0-0--3-3-|---0--0-3-3--0--0-3-3--||


2.128
 2D5/2
Gtr I
q Q +E. T E. T S
|-----------------------:
|-----------------------:
|-----------------------:
|-----------------------:
|-0--0--(0)---(0)---(0)-:
|-0--0--(0)---(0)---(0)-:


|---3---|
S S S +S T T T T S E. S S S S S S S Q H.
|-------------------------------------------------------:-----------||
|-------------------------------------------------------:-----------||
|-------------------------------------------------------:-----------||
|-------------------------------------------------------:-----------||
|---(0)-(0)-(0)---(0)---(0)---(0)---(0)---(0)-(0)-(0)---:----(0)----||
|---(0)-(0)-(0)---(0)---(0)---(0)---(0)---(0)-(0)-(0)---:----(0)----||


Interlude
Tempo I Q=216
AbA5D5 F5 G5 F5 AbA5D5 F5 G5 F5
4/4
PM------------------| PM------------------|
E E E E E E E E E E E E E +E Q E E E E E E E E E E E E E +E Q
|-----------------|--------------------|-----------------|--------------------|
|-----------------|--------------------|-----------------|--------------------|
|-----------------|--------------------|-----------------|--------------------|
|-----------------|--------------------|-----------------|--------------------|
|-6s7-------------|---------5b6r(5)-3--|-6s7-------------|---------5b6r(5)-3--|
|-6s7-0-0-0-0-0-0-|-3-3-5-5-5b6r(5)-3--|-6s7-0-0-0-0-0-0-|-3-3-5-5-5b6r(5)-3--|


AbA5D5 F5 G5 F5
Gtr I
PM------------------|
E E E E E E E E E E E E E +E Q
||------------------|--------------------|
||o-----------------|--------------------|
||------------------|--------------------|
||------------------|--------------------|
||o-6s7-------------|---------5b6r(5)-3--|
||--6s7-0-0-0-0-0-0-|-3-3-5-5-5b6r(5)-3--|
|
| Gtr II
| PM------------------|
| E E E E E E E E E E E E E +E Q
||------------------|--------------------|
||o-----------------|--------------------|
||------------------|--------------------|
||------------------|--------------------|
||o-----------------|--------------------|
||--6s7-0-0-0-0-0-0-|-3-3-5-5-5b6r(5)-3--|


1.
AbA5D5 F5 G5 F5
PM------------------|
E E E E E E E E E E E E E +E Q
|-----------------|----------------------||
|-----------------|---------------------o||
|-----------------|----------------------||
|-----------------|----------------------||
|-6s7-------------|---------5b6r(5)-3---o||
|-6s7-0-0-0-0-0-0-|-3-3-5-5-5b6r(5)-3----||
|
| PM------------------|
| E E E E E E E E E E E E E +E Q
|-----------------|----------------------||
|-----------------|---------------------o||
|-----------------|----------------------||
|-----------------|----------------------||
|-----------------|---------------------o||
|-6s7-0-0-0-0-0-0-|-3-3-5-5-5b6r(5)-3----||


2.
G5 F5 AbA5D5 G5 F5
Gtrs I, II
PM--------|
q E +E +Q Q E E E E E E E E q E +E +Q Q 3x
|---------------------||------------------|----------------------||
|---------------------||o-----------------|---------------------o||
|---------------------||------------------|----------------------||
|---------------------||------------------|----------------------||
|-5--5b6==(5)r(5)--3--||o-6s7-------------|-5--5b6==(5)r(5)--3--o||
|-5--5b6==(5)r(5)--3--||--6s7-0-0-0-0-0-0-|-5--5b6==(5)r(5)--3---||


AbA5D5 G5AbA5 G5AbA5 G5 F5 D5
Gtr I
PM--------| PM PM PM----|
E E E E E E E E E E E E E E E E S +E. Q E E E E 4x
|-----------------||------------------|---------------------||
|-----------------||o-----------------|--------------------o||
|-----------------||------------------|---------------------||
|-----------------||------------------|---------------------||
|-6s7-------------||o-5-6-7---5-6-7---|-5b6r(5)-3----------o||
|-6s7-0-0-0-0-0-0-||--5-6-7-0-5-6-7-0-|-5b6r(5)-3--0-0-0-0--||
|
| Gtr II
| PM--------| PM----|
| E E E E E E E E E E E E E E E E S +E. Q E E E E 4x
|-----------------||------------------|---------------------||
|-----------------||o-----------------|--------------------o||
|-----------------||------------------|---------------------||
|-----------------||------------------|---------------------||
|-6s7-------------||o-----------------|--------------------o||
|-6s7-0-0-0-0-0-0-||--5-6-7-0-5-6-7-0-|-5b6r(5)-3--0-0-0-0--||


G5AbA5 G5AbA5 F5GbG5D5 G5AbA5 G5AbA5 F5GbG5D5
Gtrs I, II
PM PM PM------| PM PM PM------|
|-E--E--E--E--E--E--E--E--|-E--E--E--E--E--E--E--E--|-E--E--E--E--E--E--E--E--|-E--E--E--E--E--E--E--E--||
|-----------------|-----------------|-----------------|-----------------||
|-----------------|-----------------|-----------------|-----------------||
|-----------------|-----------------|-----------------|-----------------||
|-5-6-7---5-6-7---|-3-4-5-----------|-5-6-7---5-6-7---|-3-4-5-----------||
|-5-6-7-0-5-6-7-0-|-3-4-5-0-0-0-0-0-|-5-6-7-0-5-6-7-0-|-3-4-5-0-0-0-0-0-||


Bridge
G5AbA5 G5AbA5 F5GbG5D5 G5AbA5 G5AbA5 F5GbG5D5
PM PM PM------| PM PM PM------|
E E E E E E E E E E E E E E E E E E E E E E E E E E E E E E E E 3x
||------------------|-----------------|-----------------|-------------------||
||o-----------------|-----------------|-----------------|------------------o||
||------------------|-----------------|-----------------|-------------------||
||------------------|-----------------|-----------------|-------------------||
||o-5-6-7---5-6-7---|-3-4-5-----------|-5-6-7---5-6-7---|-3-4-5------------o||
||--5-6-7-0-5-6-7-0-|-3-4-5-0-0-0-0-0-|-5-6-7-0-5-6-7-0-|-3-4-5-0-0-0-0-0---||


 2D5/4       2F5/2  G5            F5     A5    D5  
PM-| PM----|
Q Q E E E E E +E Q Q Q Q Q 4x
|-------||---------------------|---------------||
|-------||o--------------------|--------------o||
|-------||---------------------|---------------||
|-------||---------------------|---------------||
|-0--0--||o-3-3-5-5-5b7r(5)-3--|-/7--0--0--0--o||
|-0--0--||--3-3-5-5-5b7r(5)-3--|-/7--0--0--0---||


    F5Gtr G5I           F5     A5    D5           F5    G5            F5     A5    D5  
PM----| PM----|
E E E E E +E Q Q Q Q Q E E E E E +E Q Q Q Q Q
||---------------------|--------------|--------------------|---------------|
||o--------------------|--------------|--------------------|---------------|
||---------------------|--------------|--------------------|---------------|
||---------------------|--------------|--------------------|---------------|
||o-3-3-5-5-5b7r(5)-3--|-/7--0--0--0--|-3-3-5-5-5b7r(5)-3--|-/7--0--0--0---|
||--3-3-5-5-5b7r(5)-3--|-/7--0--0--0--|-3-3-5-5-5b7r(5)-3--|-/7--0--0--0---|
|
| Gtr II
| E E E E E +E Q Q Q Q Q E E E E E +E Q Q Q Q Q
||---------------------|--------------|--------------------|---------------|
||o--------------------|--------------|--------------------|---------------|
||---------------------|--------------|--------------------|---------------|
||---------------------|--------------|--------------------|---------------|
||o-3-3-5-5-5b7r(5)-3--|-/7--0--0--0--|-3-3-5-5-5b7r(5)-3--|-/7--0--0--0---|
||--3-3-5-5-5b7r(5)-3--|-/7--0--0--0--|-3-3-5-5-5b7r(5)-3--|-/7--0--0--0---|


F5 G5 F5 A5 D5 N.C.
PM----|
E E E E E +E Q Q Q Q Q E E E E E E E E E E E E E E E E
|--------------------|--------------|-----------------|------------------||
|--------------------|--------------|-----------------|-----------------o||
|--------------------|--------------|-----------------|------------------||
|--------------------|--------------|-----------------|------------------||
|-3-3-5-5-5b7r(5)-3--|-/7--0--0--0--|-----------------|-----------------o||
|-3-3-5-5-5b7r(5)-3--|-/7--0--0--0--|-7-7-7-7-5-5-5-5-|-3-3-3-3-2-2-2-2--||
|
| E E E E E +E Q Q Q Q Q E E E E E E E E E E E E E E E E
|--------------------|--------------|-----------------|------------------||
|--------------------|--------------|-----------------|-----------------o||
|--------------------|--------------|-----------------|------------------||
|--------------------|--------------|-----------------|------------------||
|-3-3-5-5-5b7r(5)-3--|-/7--0--0--0--|-----------------|-----------------o||
|-3-3-5-5-5b7r(5)-3--|-/7--0--0--0--|-7-7-7-7-5-5-5-5-|-3-3-3-3-2-2-2-2--||


G5AbA5 G5AbA5 F5GbG5D5 G5AbA5 G5AbA5 F5GbG5D5
4/4
PM PM PM------| PM PM PM------|
|-E--E--E--E--E--E--E--E--|-E--E--E--E--E--E--E--E--|-E--E--E--E--E--E--E--E--|-E--E--E--E--E--E--E--E--|
|-----------------|-----------------|-----------------|-----------------|
|-----------------|-----------------|-----------------|-----------------|
|-----------------|-----------------|-----------------|-----------------|
|-5-6-7---5-6-7---|-3-4-5-----------|-5-6-7---5-6-7---|-3-4-5-----------|
|-5-6-7-0-5-6-7-0-|-3-4-5-0-0-0-0-0-|-5-6-7-0-5-6-7-0-|-3-4-5-0-0-0-0-0-|
|
| PM PM PM------| PM PM PM------|
| E E E E E E E E E E E E E E E E E E E E E E E E E E E E E E E E
|-----------------|-----------------|-----------------|-----------------|
|-----------------|-----------------|-----------------|-----------------|
|-----------------|-----------------|-----------------|-----------------|
|-----------------|-----------------|-----------------|-----------------|
|-5-6-7---5-6-7---|-3-4-5-----------|-5-6-7---5-6-7---|-3-4-5-----------|
|-5-6-7-0-5-6-7-0-|-3-4-5-0-0-0-0-0-|-5-6-7-0-5-6-7-0-|-3-4-5-0-0-0-0-0-|


D.S. al Coda
G5AbA5 G5AbA5 F5GbG5D5 G5AbA5 G5AbA5 F5GbG5 Dissus2
PM PM PM------| PM PM PM
|-E--E--E--E--E--E--E--E--|-E--E--E--E--E--E--E--E--|-E--E--E--E--E--E--E--E--|-E--E--E--E--E--E--E--E--||
|-----------------|-----------------|-----------------|-----------------||
|-----------------|-----------------|-----------------|-----------------||
|-----------------|-----------------|-----------------|-----------------||
|-5-6-7---5-6-7---|-3-4-5-----------|-5-6-7---5-6-7---|-3-4-5---1-1-1-1-||
|-5-6-7-0-5-6-7-0-|-3-4-5-0-0-0-0-0-|-5-6-7-0-5-6-7-0-|-3-4-5-0-1-1-1-1-||
|
| E E E E E E E E E E E E E E E E E E E E E E E E E E E E E E E E
|-----------------|-----------------|-----------------|-----------------||
|-----------------|-----------------|-----------------|-----------------||
|-----------------|-----------------|-----------------|-----------------||
|-----------------|-----------------|-----------------|---------3-3-3-3-||
|-----------------|-----------------|-5-6-7---5-6-7---|-3-4-5---1-1-1-1-||
|-5-6-7-0-5-6-7-0-|-3-4-5-0-0-0-0-0-|-5-6-7-0-5-6-7-0-|-3-4-5-0-1-1-1-1-||


&
  A5E Q  D5E Q  Gis5E E   +E  D5E Q  G5/DH    A5E Q  D5E Q  Gis5E E   +E  D5E Q H
|---------------|---------------|---------------|---------------|
|---------------|---------------|---------------|---------------|
|---------------|---------------|---------------|---------------|
|---------------|---------------|---------------|---------------|
|-7-7--0-0--6-6-|-(6)-0-0-------|-7-7--0-0--6-6-|-(6)-0-0-------|
|-7-7--0-0--6-6-|-(6)-0-0-------|-7-7--0-0--6-6-|-(6)-0-0-------|
|
| E Q E Q E E +E E Q H E Q E Q E E +E E Q H
|---------------|---------------|---------------|---------------|
|---------------|----------8----|---------------|---------------|
|---------------|----------7----|---------------|---------------|
|---------------|---------------|---------------|---------------|
|-7-7--0-0--6-6-|-(6)-0-0-------|-7-7--0-0--6-6-|-(6)-0-0-------|
|-7-7--0-0--6-6-|-(6)-0-0-------|-7-7--0-0--6-6-|-(6)-0-0-------|


  A5    D5    Gis5        D5           A5    D5    Gis5   1/4  D5  
E Q E Q E E +E E Q H E Q E Q E E +E E
|---------------|---------------|---------------|-------||
|---------------|---------------|---------------|-------||
|---------------|---------------|---------------|-------||
|---------------|---------------|---------------|-------||
|-7-7--0-0--6-6-|-(6)-0-0-------|-7-7--0-0--6-6-|-(6)-0-||
|-7-7--0-0--6-6-|-(6)-0-0-------|-7-7--0-0--6-6-|-(6)-0-||
|
| E Q E Q E E +E E Q H E Q E Q E E +E E
|---------------|---------------|---------------|-------||
|---------------|---------------|---------------|-------||
|---------------|---------------|---------------|-------||
|---------------|---------------|---------------|-------||
|-7-7--0-0--6-6-|-(6)-0-0-------|-7-7--0-0--6-6-|-(6)-0-||
|-7-7--0-0--6-6-|-(6)-0-0-------|-7-7--0-0--6-6-|-(6)-0-||


Outro
 4A5/4      Gis5          F5 2/4
Gtrs I, II
H. Q +H H +W +H
|------------|-------------|------------|--------|
|------------|-------------|------------|--------|
|------------|-------------|------------|--------|
|------------|-------------|------------|--------|
|-7-------6--|-(6)----3----|-(3)--------|-(3)----|
|-7-------6--|-(6)----3----|-(3)--------|-(3)----|


   4A5/4      Gis5            F5  
H. Q +H H +W +W 6x
||-------------|-------------|------------|---------||
||o------------|-------------|------------|--------o||
||-------------|-------------|------------|---------||
||-------------|-------------|------------|---------||
||o-7-------6--|-(6)----3----|-(3)--------|-(3)----o||
||--7-------6--|-(6)----3----|-(3)--------|-(3)-----||


H.=H A Tempo Q=216
  A5       Gis5          F5 2/4
H. Q +H H +W +H
|------------|-------------|------------|--------|
|------------|-------------|------------|--------|
|------------|-------------|------------|--------|
|------------|-------------|------------|--------|
|-7-------6--|-(6)----3----|-(3)--------|-(3)----|
|-7-------6--|-(6)----3----|-(3)--------|-(3)----|


 4A5/4      Gis5            F5  
H. Q +H H +W +W
|------------|-------------|------------|--------|
|------------|-------------|------------|--------|
|------------|-------------|------------|--------|
|------------|-------------|------------|--------|
|-7-------6--|-(6)----3----|-(3)--------|-(3)----|
|-7-------6--|-(6)----3----|-(3)--------|-(3)----|


Half timH.=H108
  A5Gtr I   Gis5            B7    
<
H. Q +H H +W W
|------------|--------------|------------|--------|
|------------|---------4----|-(4)--------|-(4)----|
|------------|---------4----|-(4)--------|-(4)----|
|------------|---------4----|-(4)--------|-[4]----|
|-7-------6--|-(6)-----x----|------------|--------|
|-7-------6--|-(6)-----1----|-(1)--------|-(1)----|
|
| Gtr II
| H. Q +H H +W +W
|------------|--------------|------------|--------|
|------------|--------^9----|-(9)--------|-(9)----|
|------------|--------^7----|-(7)--------|-(7)----|
|------------|--------^8----|-(8)--------|-(8)----|
|-7-------6--|-(6)----------|------------|--------|
|-7-------6--|-(6)----------|------------|--------|


A5 Gis5 F7+9
<
H. Q +H Q +Q a H H +W
|------------|--------------------|-------------------|--------|
|------------|--------------------|-------------------|--------|
|------------|--------------------|-------------------|--------|
|------------|--------------------|-------------------|--------|
|-7-------6--|-(6)-----1b3===(1)r=|=(1)---------------|--------|
|-7-------6--|-(6)-----1b3===(1)r=|=(1)s=2-----[2]----|-(2)----|
|
| H. Q +H H +W +W
|------------|--------------------|-------------------|--------|
|------------|--------^9----------|-----(9)-----------|-(9)----|
|------------|--------^8----------|-----(8)-----------|-(8)----|
|------------|--------^7----------|-----(7)-----------|-(7)----|
|-7-------6--|-(6)----^8----------|-----(8)-----------|-(8)----|
|-7-------6--|-(6)----------------|-------------------|--------|


  A5 <                                                  Gis5   
E. +S +S +S +S +S +S +S +S +S +S +S +S +S
|------------------------------------------------------------------------------|
|------------------------------------------------------------------------------|
|------------------------------------------------------------------------------|
|------------------------------------------------------------------------------|
|------------------------------------------------------------------------------|
|-[2]b3==(2)r(2)b3==(2)r(2)b3==(2)r(2)b3==(2)r(2)b3==(2)r(2)b3==(2)r(2)b3==(2)r|
|
| H. Q
|------------------------------------------------------------------------------|
|------------------------------------------------------------------------------|
|------------------------------------------------------------------------------|
|------------------------------------------------------------------------------|
|--7------------------------------------------------------6--------------------|
|--7------------------------------------------------------6--------------------|


  +E     +S  +S  +S     +S  +E  F5
|------------------------------------|
|------------------------------------|
|------------------------------------|
|------------------------------------|
|-------------------------------1----|
|-(2)b3==(2)r(2)-(2)b3==(2)r(2)-2----|
|
| +Q +E E H
|------------------------------------|
|------------------------------------|
|------------------------------------|
|------------------------------------|
|-(6)------------(6)\-----------3----|
|-(6)------------(6)\-----------3----|


Q=50
F5/CC5
< <
+H H +H. Q +E E Q H
|-----------------|---------------------|----------------*|
|-----------------|---------------------|----------------*|
|-----------------|---------------------|----------------*|
|-----------------|---------------------|----------------*|
|-(1)-------------|---------------------|----------------*|
|-(2)------[2]----|-(2)---------[2]b4===|=(2)r-----------*|
|
| E Q E H +W +Q Q H
|--1--3--3s=4-----|-(4)-----------------|-(4)----4-------*|
|--1--------------|--3--------0---------|----------------*|
|-----------------|---------------------|----------------*|
|-----------------|---------------------|----------------*|
|-----------------|---------------------|----------------*|
|-----------------|---------------------|----------------*|
Q Q E E Q


Duration Legend
---------------
W - whole; H - half; Q - quarter; E - 8th; S - 16th; T - 32nd; X - 64th; a - acciaccatura
+ - note tied to previous; . - note dotted; .. - note double dotted
Uncapitalized letters represent notes that are staccato (1/2 duration)
Irregular groupings are notated above the duration line
Duration letters will always appear directly above the note/fret number it represents the
duration for. Duration letters with no fret number below them represent rests. Multi-
bar rests are notated in the form Wxn, where n is the number of bars to rest for. Low
melody durations appear below the staff

Tablature Legend
----------------
h - hammer-on
p - pull-off
b - bend
pb - pre-bend
r - bend release (if no number after the r, then release immediately)
/\ - slide into or out of (from/to "nowhere")
s - legato slide
S - shift slide
<n> - natural harmonic
[n] - artificial harmonic
n(n) - tapped harmonic
~ - vibrato
tr - trill
T - tap
TP - trem. picking
PM - palm muting
\n/ - tremolo bar dip; n = amount to dip
\n - tremolo bar down
n/ - tremolo bar up
/n\ - tremolo bar inverted dip
= - hold bend; also acts as connecting device for hammers/pulls
<> - volume swell (louder/softer)
x - on rhythm slash represents muted slash
o - on rhythm slash represents single note slash

Misc Legend
-----------
| - bar
|| - double bar
||o - repeat start
o|| - repeat end
*| - double bar (ending)
: - bar (freetime)
$ - Segno
& - Coda
Tempo markers - <E/E./Q/Q./H/H.> = BPM(8/16=s8/s16), where s8 = swing 8ths, s16 = swing 16ths


Oceń to opracowanie
Kontrybucje:
nogciu
nogciu
anonim