0
0

Nothing else matters (Nothing Else Matters) Metallica

Se o close no matter hoDw farC 
e Couldn't be much more fDrom the heaCrt
e Forever trusting wDho we areC 
GAnd H7nothing else me atters

e Never opened mysDelf this wayC 
e Life is ours, we live it oDur way C 
e All these words I don't jDust say C 
GAnd H7nothing else me atters

e Trust I seek and ID find in yCou
e Every day for us sDomething newC 
e Open mind for a dDifferent viewC 
GAnd H7nothing else me atters

Chorus:

C  A  D Never cared for what they Cdo
  A  D Never cared for what they kCnow
  A  D But I e know

repeat 1st verse

chorus

repeat 2nd and 3rd verse

C  A  D Never cared for what they sCay
A  D   Never cared for what they Cknow







E1--------0---------------0----7----7-----------7--8--7--5--7--5--0--0---------
H2------0---0-----------0---0------------0---------------------------------1---
G3----0-------0-------0----------------0------0-------------------------2------
[D4----------------------------------------------------------------------------]A5-------------------------------------------------------------------0---------
E6-0---------------0----------------0-------0---------------------------------


E1---0--------------------0----------------------0-----------------2----------
H2----------1----------1---------------------1-------1----------3-----3--------
G3------2-----------2---------------------0--------------0---2----------2------
D4-----------------------------------------------------------------0----------------
A5---0------------0-----------0---2----3-------------------------------------------
E6----------------------------------------------------------------------------


E1-----------0--------------0-------------0--------------0---7--------2------0---------
H2--------0-----0---------0---0---------0---0----------0-----8--------3------1------------
G3-----0----------0-----0-------0-----0------0-------0-------------2-------0------------
D4---------------------------------------------------------------0-------------------
A5-----------------------------------------------------------------------3------------
E6---0---------------0--------------0--------------0---------0-----------------------



E1-------0--7--------2--------0---------0--7-------2-------0--------0-------3-----------
H2-----0----8--------3--------1------0-----8-------3-------1--------1-------0-----------
G3---0------------2--------0-------0-------------2------0---------0-------3-----------
D4--------------0------------------------------0--------------------------------
A5----------------------3-----------------------------3-------------------------
E6--0-------0--------------------0---------0--------------------3------3------

e-moll(przez wszys. struny)
E1---------2----------0-------------0--------------0------------------------------
H2---------0-------0----0--------0----0------------0--------------------------------
G3------2--------0--------0----0-------------------0-------------------------------
D4-------------------------------------------------2---------------------------
A5--2----------------------------------------------2----------------------------
E6-------------0-------------0-------------3--2----0-------------------------------


Oceń to opracowanie
Ocena czytelników: Niczego sobie 178 głosów
anonim
  • nixa
    nixa 2
    Bicie dół dół góra dół góra
    · Zgłoś · 2 lata temu
  • nixa
    Ja to gram tak
    Zwrotka
    eDCe
    Ta wstawka „and nothing else matters” gram eDe
    Refren
    DCa
    Na koniec refrenu „but I know” gram na e
    Bicie gram „?????
    · Zgłoś · 2 lata temu
  • YamahaTom
    zamiast B grajcie H
    · Zgłoś · 2 lata temu
  • Julka Matejczyk
    podacie bicie
    · Zgłoś · 4 lata temu
  • Kacper
    Julka
    Bardzo mi się ta wersja podoba. Jest najłatwiejsza. Dzięki
    · Zgłoś · 6 lat temu