Funeral March Of A Marionette Metallica

Tekst piosenki

  • Tekst piosenki Maricia
    1 ulubiony

e---------------------------------------------------
B---------------------------------------------------
[G---------------------------------------------------]D--//--7-7-5-7-8-7-5---5-5-4-5-7-4-----------------5
A----------------------------------5---8-8-7-5-7-8--
E---------------------------------------------------

Rythm guitar
D--2-7--X--X--X-- -2--7--9--10----
A--0-5--X--X--X-- three times -0--5--7--8---10
E---------------- --------------8-

Lead guitar
e----------------------------------
[B----------------------------------]G----7-7-7-6---6-7-9----7-7-7-6---6
D--7---------9--------7---------9--
A----------------------------------
[E----------------------------------]This is the main riff, sometimes with artificial harmonics or wah.

e-------------------------------12-----9h12p9-----------
B------10----------13-----10-10----12---------9h12p9-7--
G--7-7----9--10-10----12-------------------------------7
D-------------------------------------------------------
A-------------------------------------------------------
[E-------------------------------------------------------]The rising part. At the end instead of playing the sale
back down, just trill the 9-12 on the high E.


Oceń to opracowanie
Kontrybucje:
Maricia
Maricia
anonim