God Father Theme Metallica

Tekst piosenki

  • Tekst piosenki 0dludeq
    1 ulubiony
Soundtrack Z Filmu W Wykonaniu Metallicy


e-------------------------------|---------------------------------------|
e-15----14-15-16-15-15----------|--15---14-15-16-15-15------------------|
e-----------------------14~~~~\-|----------------------13~~~~\----------|
e-------------------------------|---------------------------------------|
e-------------------------------|---------------------------------------|
e-------------------------------|---------------------------------------|

BR BR
e-------------13----------------|---------------------------------------|
e-15~~~-14-15----15-14-17--15---|---------------14----------------------|
e-------------------------------|--15--14--15----------14~~~~~\---------|
e-------------------------------|---------------------------------------|
e-------------------------------|---------------------------------------|
e-------------------------------|---------------------------------------|

Drums (cymbal) & Piano In
e-------13-12----13----12----------------|--------13-12----13----12-----------------------
e----15-------15----15----15----13-------|-----15-------15----15----15---12-/-14-13-12~~~~
e-14-------------------------15----14~~~-|--14--------------------------------------------
e----------------------------------------|------------------------------------------------
e----------------------------------------|------------------------------------------------
e----------------------------------------|------------------------------------------------

BR BR
e---------------------------------------------------------------------|
e-----15---------14-15~~~~--------------------------------------------|
e---x------14-15-------------14-15-14--15--14~~-15--14----------------|
e-x-----------------------------------------------------15--11--12----|
e---------------------------------------------------------------------|
e---------------------------------------------------------------------|

Main Riff (Full Drums In)
BR B BR BR BR BR BR BR BR
ç----------------12---------------------------------------------------|
ç-15--15--14--13-----13--10----9----8---------------------------------|
ç---------------------------------------------------------------------|
ç---------------------------------------------------------------------|
ç---------------------------------------------------------------------|
ç---------------------------------------------------------------------|

H P H P
e---------13--12-13-12--------12-13----12------------------------|
e------15--------------15-13--------15----15-13-15----13---------|
e-/14----------------------------------------------15----14~~~~~-|
e----------------------------------------------------------------|
e----------------------------------------------------------------|
e----------------------------------------------------------------|






H P
e-------13-12-13-12-------12-13----12------------------------|
e----15-------------15-13-------15-----13--15----------------|
e-14--------------------------------------------/14-13-12~~~-|
e------------------------------------------------------------|
e------------------------------------------------------------|
e------------------------------------------------------------|

BR BR
e----------------------------------------------------------------|
e-----15---------------------------------------------------------|
e---x--------------14-15-----------------------------------------|
e-x-------/12---15-------14-15-14-15-----14----------------------|
e----------------------------------------------12/15~~~~~~~~~~~--|
e----------------------------------------------------------------|


e----------------------------------------------------------------|
e----------------------------------------------------------------|
e----------------------------------------------------------------|
e-11~~~~~~~~~~~~~~---------12~~~~~~~~~~~~~~~-\-------------------|
e----------------------------------------------------------------|
e----------------------------------------------------------------|



Oceń to opracowanie
Ocena czytelników: Doskonały 1 głos
Kontrybucje:
0dludeq
0dludeq
anonim
  • 0dludeq
    kolega widze znawca tematu....metallica tez wykonala ten utwor
    · Zgłoś · 14 lat temu
  • marshall
    wszystko ładnie pięknie tylko czemu to jest w metallice!!??
    Slash wykonal to solo, wiec bardziej pasowalo by pod guns n roses to umiescic.
    · Zgłoś · 14 lat temu