Popraw Opracowanie
Transponuj
0

Nothing else matters Metallica

Tekst piosenki i chwyty na gitarę

 e                  D    C
So close no matter how far
e                     D          C
Couldn't be much more from the heart
e                D        C
Forever trusting who we are
G   B             e
And nothing else matters

e              D           C
Never opened myself this way
e                        D      C
Life is ours, we live it our way
e                       D       C
All these words I don't just say
G   B             e
And nothing else matters

e                D         C
Trust I seek and find in you
e                D           C
Every day for us something new
e               D            C
Open mind for a different view
G   B             e
And nothing else matters

Chorus:

C A D                          C
     Never cared for what they do
  A D                           C
     Never cared for what they know
  A D      e
     But I know

repeat 1st verse

  chorus

repeat 2nd and 3rd verse

C A D                           C
     Never cared for what they say
A D                            C
     Never cared for what they know





E1--------0---------------0----7----7-----------7--8--7--5--7--5--0--0---------
H2------0---0-----------0---0------------0---------------------------------1---
G3----0-------0-------0----------------0------0-------------------------2------
D4----------------------------------------------------------------------------
A5-------------------------------------------------------------------0---------
E6-0---------------0----------------0-------0---------------------------------


E1---0--------------------0----------------------0-----------------2----------
H2----------1----------1---------------------1-------1----------3-----3--------
G3------2-----------2---------------------0--------------0---2----------2------
D4-----------------------------------------------------------------0----------------
A5---0------------0-----------0---2----3-------------------------------------------
E6----------------------------------------------------------------------------


E1-----------0--------------0-------------0--------------0---7--------2------0---------
H2--------0-----0---------0---0---------0---0----------0-----8--------3------1------------
G3-----0----------0-----0-------0-----0------0-------0-------------2-------0------------
D4---------------------------------------------------------------0-------------------
A5-----------------------------------------------------------------------3------------
E6---0---------------0--------------0--------------0---------0-----------------------



E1-------0--7--------2--------0---------0--7-------2-------0--------0-------3-----------
H2-----0----8--------3--------1------0-----8-------3-------1--------1-------0-----------
G3---0------------2--------0-------0-------------2------0---------0-------3-----------
D4--------------0------------------------------0--------------------------------
A5----------------------3-----------------------------3-------------------------
E6--0-------0--------------------0---------0--------------------3------3------

                                                   e-moll(przez wszys. struny)
E1---------2----------0-------------0--------------0------------------------------
H2---------0-------0----0--------0----0------------0--------------------------------
G3------2--------0--------0----0-------------------0-------------------------------
D4-------------------------------------------------2---------------------------
A5--2----------------------------------------------2----------------------------
E6-------------0-------------0-------------3--2----0-------------------------------

Oceń to opracowanie
Ocena czytelników: Dobry 24 głosy

Kontrybucje
Levandi

Współpraca

W wiki-śpiewniku Wywroty możesz poprawiać istniejące opracowania i zdobywać punkty karmy. Zapoznaj się z zasadami kontrybucji.
anonim
Znaleziono 2 komentarze.