0
0

So what Metallica

Tekst piosenki i chwyty na gitarę

  • Chwyty na gitarę
    2 ulubione
So fucking what!

Well, Ive been to hastings and Ive been to brighton
Ive been to eastbourne too
So what, so what
And Ive been here, Ive been there
Ive been every fucking where
So what, so what
So what, so what, you boring little cunt

Well, who cares, who cares what you do
Yeah, who cares, who cares about you, you, you, you, you

Well, Ive fucked the queen, Ive fucked bach
Ive even sucked an old mans cock
So what, so what
And Ive fucked a sheep, Ive fucked a goat
I rammed my cock right down its throat
So what, so what
So what, so what, you boring little fuck

Well, who cares, who cares what you do
And, who cares, who cares about you, you, you, you, you

And Ive drunk that, Ive drunk this
Ive spewed up on a pint of piss
So what, so what
Ive had scank, Ive had speed
Ive jacked up until I bleed
So what, so what
So what, so what, you boring little cunt

Well, who cares, who cares what you do
Yeah, who cares, who cares about you, you, you, you, you, you

A-hahaha!

Yeah!

Ive had crabs, Ive had lice
Ive had the clap and that aint nice
So what, so what
Ive fucked this, Ive fucked that
Ive even fucked a school girls twat
So what, so what
So what, so what, you boring little fuck

Well, who cares, who cares what you do
And, who cares, who cares about you, you, you, you, you, you

So fucking what!
Yeah1)
[D----------------------------------------------]A--5//7-7-7-7--5//7-7-7-7--5//7-5//7-5//7-7-7-7
E--3//5-5-5-5--3//5-5-5-5--3//5-3//5-3//5-5-5-5
pm ..... ..... .....
intro


2)
D--7--7-7-7-7-7-7-7
A--5--5-5-5-5-5-5-5
[E------------------]pm.........gradually release


3a) James
G-----------5-----------------
D--5--------3-----------------
A--3----------------5//7-7-7-7
E-------------------3//5-5-5-5

3b)
[e-----------------------------]B-------------6---------------
G------5----5---5-------------
D--5-5---5--3-----3-----------
A--3----------------5//7-7-7-7
E-------------------3//5-5-5-5
pm .....
who cares

________________________________________
solo (part)

16 times full full full
^ ^ ^ ^V
[e---------------------------------------------------------------------]B--15-------15----15----15-----12-------------------------------------
G--14-------14-14----14-----14----14p12h14p12----12-12--12-14-12-14-12
D---------------------------------------------14-12-12--12-14-12-14-12
A---------------------------------------------------------------------
[E---------------------------------------------------------------------]1:51                                                                  

8X

^
[e--------------------------------------------]B--15-----12h15p12----12---------------------
G--14--14----------14----14p12----some-------
D------------------------------14-thing-14p12
A--------------------------------------------
[E--------------------------------------------]2:01                                         

full
^
e-------------------
[B-------------------]G--7-------7h9p7----
D----9-7-9-------7-9
A-------------------
[E-------------------]2:06                

full full
^V ^V
e-----------------------15
B-----11----------11-13---
G--12----12-10-12---------
D-------------------------
A-------------------------
E-------------------------


Oceń to opracowanie
Kontrybucje:
elo520
elo520
anonim