Hej, sokoły (Ukraina) Piosenki Ludowe


E|------------------|--------------------|
B|------------------|--------------------|
G|------3---------3-|-7------7-5----3----|
D|-5---------5------|--------------------|
A|------------------|--------------------|
E|------------------|--------------------|

E|---------------------|--------------------|
B|---------------------|--------------------|
G|------5---------5----|-8------8-7----5----|
D|-7---------7---------|--------------------|
A|---------------------|--------------------|
E|---------------------|--------------------|

E|---------------------|--------------------|
B|---------------------|--------------------|
G|------3---------3----|-7------7-5----3----|
D|-5---------5---------|--------------------|
A|---------------------|--------------------|
E|---------------------|--------------------|

E|------------------|---------------------|
B|------------------|---------------------|
G|-7------8-7-5-----|----------------5----|
D|--------------8-7-|-5----7----8---------|
A|------------------|---------------------|
E|------------------|---------------------|

E|-------------------|--------------------|
B|-------------------|-6-----6------------|
G|-7--------7--------|---------8----7-----|
D|-------------------|--------------------|
A|-------------------|--------------------|
E|-------------------|--------------------|

E|----------------------|-------------------|
B|-6-----6-6----6-------|-6-8-6-------------|
G|----------------------|-------8-7----5----|
D|----------------------|-------------------|
A|----------------------|-------------------|
E|----------------------|-------------------|

E|------------------|--------------------|
B|------------------|--------------------|
G|------3---------3-|-7------7-5----3----|
D|-5---------5------|--------------------|
A|------------------|--------------------|
E|------------------|--------------------|

E|------------------|--------------------|
B|------------------|--------------------|
G|-7------8-7-5-----|------3-------------|
D|--------------8-7-|-5---------5--------|
A|------------------|--------------------|
E|------------------|--------------------|




Oceń to opracowanie
Ocena czytelników: Niczego sobie 26 głosów
Kontrybucje:
Paula =)
Paula =)
anonim
  • Marcin
    Ramones
    tak brzmi pod warunkiem że gitara jest nastrojona hehe
    · Zgłoś · 3 lata temu
  • Marcin
    gitarzysta
    nie żeby coś ale struny na gitarze mają taką cudowną właściwość, że 5 próg brzmi tak samo jak nastepna struna. pozdrawiam ;)
    · Zgłoś · 4 lata temu
Usunięto 1 komentarz