Innuendo Queen

Tekst piosenki

  • Tekst piosenki Kurt Cobain
    2 ulubione
Innuendo by Queen

synth:
|-----0----------4-------|
|-----0----------4-------|
|-----2----------6-------|
|-----3----------7-------|
|------------------------|
|-0-----...--4-----...---|

guitars 0:30
|---------------------------------------------0-------------------0----------|
|-fade in----------4-5----5/7____--0----0-1-3----1-----0----0-1-3----1-----|
|with feedback---5-------------------x----------------2--x----------------2--|
|-6----~~~~~~~~----------------------2-------------------2-------------------|
|-6----~~~~~~~~----------------------2-------------------2-------------------|
|-4----~~~~~~~~----------------------0-------------------0-------------------|

0:54
|--------------------------------|
|----------------0--0------------|
|------(2--1)----2--1------------|
|-2----(3--2)----3--2------------|
|-2----(3--2)----3--2------6-----|
|-0--------------0--0------4-----|

1:12
|------------------------------------------------------------------------|
|------------------------------------------------------------------------|
|------------------------------------------------------------------------|
|-6-------------------6--------9-----------------6-------------------6---|
|-4-------------------4----4-6-7----9-11-9--2---4--------9----9-----6---|
|------4-6-7---6__2----------------------------------4-6-7----6--2--4---|


|------------------------------0------------------|
|-0----0-1-3----1-----0----0-1-3----3--1--3p1p0---|
|-x----------------2--x---------------------------|
|-2-------------------2---------------------------| (another guitar)
|-2-------------------2---------------------------|
|-0-------------------0---------------------------|

... (repeated similar)

A

acoustic interlude
|-------0----------------0-----|----|--------------------------------|------|
|---------0----------------3---|----|---------0---------------1------|------|
|-----2-------2--------2-------|-0/-|-----1-2-----1-------2-4---2----|-0/---|
|---2----------------3---------|-/0-|---2-------2---2---3---------3--|-/0---|
|-0----------------0-----------|----|--------------------------------|---(0)|
|------------------------------|----|-0---------------1--------------|------|
|
|-------9------------------------------|--------|------------------------------------|----|
|-10-12---10-------------------12-10---|--..10_/|-*--9-10-12-9---*-10-12-13-10--(10)-|----|
|------------9------------9-10---------|-0/-----|------------------------------------|-0/-|
|----------------11----12--------------|-/0-----|------------------------------------|-/0-|
|--------------------------------------|--------|------------------------------------|----|
|--------------------------------------|--------|------------------------------------|----|

|-----8-8-8-8-8-8----8--8--8--8--8-(8______)-------(8______)----------8-8-8---------|
|-----8-8-8-8-8-8----9--9--9--9--9--9-12-12---8-8-8-8-8-8-8---9-9-9-9-9-9-9-9-9-9---|
|-----9-9-9-9-9-9---10-10-10-10-10-10-10-10---9-9-9-9-9-9-9---8-8-8-8-8-8-8-8-8-8---|
|-----------------------------------------------------------------------------------|
|-----------------------------------------------------------------------------------|
|-8---------------8-------------------------8---------------8-----------------------|
______ _____ ___ _____
|-5-555-7-8-7--10-8h10p8-7-5-3-333-5-7-5-8-7h8p7-5-3--1-111-3-5-3-5/7-5-3h5p3-1-|
|-------------------------------------------------------------------------------|
|-------------------------------------------------------------------------------|
|-------------------------------------------------------------------------------|
|-------------------------------------------------------------------------------|
|-------------------------------------------------------------------------------|
|
|---------------_____--------------------_____-------------------------------|
|-------0-1-0-3-1h3p1-0-----------0---1--0h1p0---------------------_____-----|
|-2-222-----------------2-0-000-2---2----------2-0-------0-2-0_2-4-2h4p2-0---|
|--------------------------------------------------3-333-------------------3-|
|----------------------------------------------------------------------------|
|----------------------------------------------------------------------------|
| ____ ____ ____
|-5-5555--------3-3333-------1-1111---|
|-5-5555--------3-3333-------1-1111---|
|-6-6666--------3-4444-------2-2222---|
|-7-7777--------5-5555-------3-3333---|
|-7-7777--------5-5555-------3-3333---|
|-5-5555--------3-3333-------1-1111---| E... repeated several times
_________
|-0-000-1-111-0-000-5-555-4h5-4h5-4------------------------------01234|5---|
|-------------------------------------4-445-----------------01234-----|----|
|-------------------------------------------------------0123----------|----|
|--------------------------------------------------01234--------------|----|
|---------------------------------------------01234-------------------|----|
|---------------------------------------------------------------------|----|
|
|----------------------------------------------------|
|----------------------------------------------------|
|----------------------------------------------------|
|-2-222-3-333-2-222-3-333-2-222-1-111-2-222-222-222--|
|----------------------------------------------------|
|----------------------------------------------------|

_____
|---------0---1-0h1p0-------------------_____-------------------_____-----|
|-1-111-3---3---------3-1-0-000-1-3-1-5-3h5p3-1-0-------0-1-0-3-1h3p1-0---|
|-------------------------------------------------2-222-----------------2-|
|-------------------------------------------------------------------------|
|-------------------------------------------------------------------------|
|-------------------------------------------------------------------------|
|
|----------------_____--------------------_____------------------------------|
|--------0-1-0-3-1h3p1-0------------0---1-0h1p0--------------------_____-----|
|-2-2222-----------------2-0-0000-2---2---------2-0--------0-2-0-4-2h4p2-0---|
|---------------------------------------------------3-**33-----------------3-|
|----------------------------------------------------------------------------|
|----------------------------------------------------------------------------|


|--------------------------------------|
|--------------------------------------|
|-1-111-2-222-1-111-2-222-111-2424241--|
|--------------------------------------|
|--------------------------------------|
|--------------------------------------|
|
|----------------------------------------|-----|
|----------------------------------------|-----|
|----------------------------------------|-0//-|
|-2-222-3-333-2-222-3-333-2-222-1-111-2--|-//0-|
|----------------------------------------|with some
|----------------------------------------|little modifications
(only this guitar goes on)

"solo" ___
|---12---15-13-12-13-15--1p0-000-1-111-0-000-5-555-4-444-8-888-7--|
|--13-------------------------------------------------------------|
|-14--------------------------------------------------------------|
|-----------------------------------------------------------------|
|-----------------------------------------------------------------|
|-----------------------------------------------------------------|

|----------12-15/17-17--17-----12-15-17---15-13-12-12-10-------------------|
|-12-13/15------------------------------------------------13-12---12---12---|
|---------------------------------------------------------------------------|
|---------------------------------------------------------------------------|
|---------------------------------------------------------------------------|
|---------------------------------------------------------------------------|

|-19---17---15--12---12---10----------|
|-------------------------------13-----|
|--------------------------------------|
|--------------------------------------|
|--------------------------------------|
|--------------------------------------|

|-10---7-8---7---------------------------------------------------------------|
|--------------10---9-10---9-------------------------------------------------|
|----------------------------10---9-7-7--------------------------------------|
|---------------------------------------10---9---7h9p7---6---7---6h7p6-------|
|------------------------------------------------------------------------8---|
|----------------------------------------------------------------------------|

|-----------------------------|
|-----------------------------|
|-----------------------------|
|-----------------------------|
|-87-7-5-----5---------------|
|---------8-7---7-8-5-5---0---|
end of acoustic interlude

eletric guitar
|--------------------------------------------------------------------------|
|---------------_____-------------------_____------------------------------|
|-------4-5-4-7-5h7p5-4-----------4-2-5-4h5p4-------------------_____------|
|-7-777-----------------7-5-555-7---7---------7-5-------5-7-5-9-7h9p7------|
|-------------------------------------------------8-888---------------10-8-|
|--------------------------------------------------------------------------|

|---------------------------------|-----|
|-------------------------9-\\--|-----|
|-------------------------9-trem.-|-0//-|
|-------------------------9-\\--|-//0-|
|-7-777-8-8-8-7-777-8-8-5-7-\\--|-----|
|---------------------------------| 2X |

another guitar
|---------------_____-------------------------------------------_____-----|
|-------3-5-3-6-5h6p5-3-----------3---5-3h5p3-----------0-1-0-3-1h3p1-0---|
|-5-555-----------------5-4-444-5---5---------5-4-2-222-----------------2-|
|-------------------------------------------------------------------------|
|-------------------------------------------------------------------------|
|-------------------------------------------------------------------------|

|----------------------------------------|-----|
|----------------------------------------|-----|
|-1-111-2-222-1-111-2-222-1-111-2-222-(1)|-0//-|
|----------------------------------------|-//0-|
|----------------------------------------|-----|
|----------------------------------------|-----|

solo:
|-----------20b22----20-19-17----17---------|
|-20b22v----------------------20----20b22---|
|-------------------------------------------|
|-------------------------------------------|
|-------------------------------------------|
|-------------------------------------------|

|----------------------------------------------------------------------|
|-20p17----------------------------------------------------------------|
|-------21r19p17---19---17---16---17---16h17p16----14---16---14---13---|
|----------------------------------------------------------------------|
|----------------------------------------------------------------------|
|----------------------------------------------------------------------|

|------------------------------------------------------|
|------------------------------------------------------|
|-14---13h14p13----------------------------------------|
|-----------------15---1412-10-12p10-9-10p97---------|
|----------------------------------------------10p8...-|
|------------------------------------------------------|

...
next riffs are similar to the opening riffs

final solo ________
|-19b_20-----16--17--19--17--16--17--16h17p16---16-------------________----|
|--------------------------------------------19----19-17-16-17-16h17p16----|
|-----------------------------------------------------------------------18-|
|--------------------------------------------------------------------------|
|--------------------------------------------------------------------------|
|--------------------------------------------------------------------------|

|-------------------------------------------------------------|
|-16----__________--------------------------------------------|
|----18-17h18php17----17--------------------------------------|
|------------------19----19-18-19-18h19p18p17hhpphhpphhpp...--|
|-------------------------------------------------------------|
|-------------------------------------------------------------|



Oceń to opracowanie
Ocena czytelników: Słaby 1 głos
Kontrybucje:
Kurt Cobain
Kurt Cobain
anonim