0
0

The World We Created Queen

Tekst piosenki i chwyty na gitarę

  • Chwyty na gitarę Redakcja
    2 ulubione
Intro:

-1---1---0---0---1---1---0---0---
---------------------------------
-3---3---3---3---3---3---3---3--- Do this twice.
---0---0---0---0---0---0---0---0-
---------------------------------
---------------------------------

Part II:

-5---5---5---5---5---5---3---3---3---3---3---1------2
----------------------------------------------------3
-7---7---6---6---5---5---4---4---3---3---3---3------2
---0---0---0---0---0---0---0---0---0---0---0--------0
-----------------------------------------------------
-----------------------------------------------------

Verse 1:

bin Just look at all those hungry moAuths we have to fGeed

bin Take a look at all the sAuffering and gGreed

-------------------------------
----8-8-8-7-7-7-7-6-6-6-5------
----7-7-7-7-7-7-7-5-5-5-5------
-------------------------------
-0--------0--------------------
------------------3-----3------
So many lonely faces Scattered all around

fisin Searching for what  they nGeed       D/F#       ein     


Chorus:

Is this the wDorld we crA/Deated
We main/D ade it on our oG/Dwn 
Is this the wbin orld we invaded
  fisin Its all alonein e   
(then same as Intro part II)
So it seems, In the end, Is this what, Were living for, Today,
In this world that we created.

Verse II:
You know that everyday a helpless child id born
Who needs love and care inside a happy home
Somewhere a wealthy man sitting on his throne
Waiting for life to go by

Chorus II:
Is this the world that we created
We made it on our own
Is this the world we devastated
Right to the bone
If theres a god, up in the sky, looking down, what must he think of what
we've done
To the world that he created.


Oceń to opracowanie
Ocena czytelników: Słaby 1 głos
Kontrybucje:
Redakcja
Redakcja
anonim
  • Kacper
    weewer
    zamknij sie
    · Zgłoś · 9 lat temu
  • Kacper
    Bartas
    obłudna ta piosenka jak cholera! Queen tak naprawdę mieli w dupie ludzi Krajów Trzeciego Świata!
    · Zgłoś · 15 lat temu