0
0

Lorelei Scorpions

Tekst piosenki i chwyty na gitarę

  • Chwyty na gitarę moniablu
    3 ulubione
gis cis Fis

E|-4-------4-------4-------4-------4-------4-------2-------2---------|
B|-4---4---4---4---4---4---4---4---5---5---5---5---2---2---2---2-----|
G|-----4-------4-------4-------4-------6-------6-------3-------3-----|
D|---6---6---6---6---6---6---6---6---6---6---6---6---4---4---4---4---|
A|-------------------------------------------------------------------|
E|-------------------------------------------------------------------|
gis cis Fis *let ring
E|-4-------4-------4-------4-------4-------4-------2-----------------|
B|-4---4---4---4---4---4---4---4---5---5---5---5---2-----------------|
G|-----4-------4-------4-------4-------6-------6---3-----------------|
D|---6---6---6---6---6---6---6---6---6---6---6---6-4-----------------|
A|-------------------------------------------------4-----------------|
E|-------------------------------------------------2-----------------|

gisThere was a time when we sailed on todisgether
Dis7Once had a dream that we shared on the gisway
EThere was a place where we used to seek sHhelter
cisI never knew the pAain of the price I would Dispay

gisYou led me on with a cloak and a ddisagger
Dis7And I didn't know you had made other gisplans
EAnd had me believe we were meant for foreHver
cisI really thought my heAart would be safe in your hDisands

b Lorelei
FisMy ship has paCisssed you by
And though you prodismised me to show the way
FYou led me astray
You were my Lob relei
FisWhat kind of fCisool was I
Cause I beldisieved in every word you said
And nFow I wonder why
b Lorelei

gisThere was a time when we held one anodisther
Dis7Bearing our souls in the light of the fgislame
EThose were the days now I've lost my illusHions
cisSometimes I wake in the niAght and I call out your nDisame

b Lorelei
FisMy ship has paCisssed you by
And though you prodismised me to show the way
FYou led me astray
You were my Lob relei
FisWhat kind of fCisool was I
Cause I beldisieved in every word you said
And nFow I wonder why
b Lorel

gisNow there's a light that shines on the disriver
Dis7Blinding my eyes from so far gisaway
EShot through the heart but now I know beHtter
cisAs hard as it is to rAesist the song that you pDislay

b Lorelei
FisMy ship has paCisssed you by
And though you prodismised me to show the way
FYou led me astray
You were my Lob relei
FisWhat kind of fCisool was I
Cause I beldisieved in every word you said
And nFow I wonder why
b Lorelei

Oceń to opracowanie
Ocena czytelników: Doskonały 3 głosy
Kontrybucje:
moniablu
moniablu
anonim