Popraw Opracowanie Usuń
Transponuj
0

Bieszczadzkie anioły Stare Dobre Małżeństwo

SDM  Bieszczadzkie Anioły
(nie moja) wersja super piosenki SDMu - dedykóję Gosi, Rudemu i Waldusiowi(dzięki za to że jesteście)

miłego grania   Grafik

WSTĘP

      a
e|-------0-------0-------0------0------0------0------0------0------0------0------0------0-------0------0------0------0------0--0-0-0-----0-----0--0-0-0--|
H|-------1-------1-------1------1------1------1------1------1------1------1------1------1-------1------1------1------1------1--1-1-1-----1-----1--1-1-1--|
G|-------2-------2-------2------2------2------2------2------2--2---2--2---2-0h2--2-0h2--2-------2------2------2------2------2--2-2-2-----2-----2--2-2-2--|
D|-------2---2---2-------2--0h2-2------2---2--2------2--0h2-2------2------2------2------2---2---2---2--2-0h2--2-0h2--2------2--2-2-2-0h2-2-----2--2-2-2--|
A|---0---------------0--------------0------------0----------------------------------------------------------------------0-------------------0------------|
E|-------------------------------------------------------------------------------------------------------------------------------------------------------|

ZWROTKA

       a                        G
e|-------0-------0-------0-------------3-------3-------3--------|
H|-------1-------1-------1-------------0-------0-------0--------|
G|-------2-------2-------2-------------0-------0-------0--------|
D|-------2---2---2-------2--0h2--------0---0---0-------0--------|
A|---0---------------0----------0--2---2-------2---2---2--0h2---|
E|-----------------------------------------------------------3--|


      a                           e
e|-------0-------0-------0-------------0-------0-------0--------|
H|-------1-------1-------1-------------0-------0-------0--------|
G|-------2-------2-------2-------------0-------0-------0--------|
D|-------2---2---2-------2--0h2--------2---2---2-------2--------|
A|---0---------------0----------0--2---2-----------2---2--0h2---|
E|-----------------------------------------------------------3--|



       C             G            C                     F
e|-------0-------0-------3--------------0-------0-------1-1-----|
H|-------1-------1-------0--------------1-------1-------1-1-----|
G|-------0-------0-------0--------------0-------0-------2-2-----|
D|-------2---2---2-------0--------------2---2---2-------3-3-----|
A|---3---3-------3---2---2--0H2-----3---3-------3-------3-3-----|
E|-------0-------0-------3------3-------0-------0-------1-1-----|



       C             G              a               e               a
e|-------0-------0-------3--------------0-------0-------0-------0-------0--------|
H|-------1-------1-------0--------------1-------1-------0-------0-------1--------|
G|-------0-------0-------0--------------2-------2-------0-------0-------2--------|
D|-------2---2---2-------0--------------2---2---2-------2---2---2-------2--0H2---|
A|---3---3-------3---2---2--0H2-----0---------------2---2-------2---0----------0-|
E|-------0-------0-------3------3------------------------------------------------|


REFREN : CGa

Am,G,Em,C,F
Oceń to opracowanie
Ocena czytelników: Doskonały 2 głosy

44 886 wyświetleń
Autor opracowania
GRAFIK
  • Teledysk

Współpraca

W nowym śpiewniku możesz poprawiać istniejące opracowania i zdobywać punkty Karmy. Zapoznaj się z zasadami kontrybucji.
anonim
Znaleziono 7 komentarzy.
  • studentka
    studentka 4 lata temu

    Kto "uje" kreskuje, ten ma same dwóje :P

  • Anonimowy użytkownik
    paula 4 lata temu

    dedykuje Ci słownik ortograficzny.

  • slash
    slash 11 lat temu

    fajna ta piosenka Starego Dobrego Małżeństwa po prostu kocham ten zespół :):) pewnie nawet nie znasz i tak mówisz ;]

  • Anonimowy użytkownik
    seba 12 lat temu

    dedykuje to przez U zwykle

  • Anonimowy użytkownik
    Vrt 12 lat temu

    Gr8 tab, thx :)

  • Anonimowy użytkownik
    Valther 12 lat temu

    przydał by sie do tego text

  • Anonimowy użytkownik
    ja 12 lat temu

    gupia najlepsza jest Scatman 2003 Scatmana Johna