Bieszczadzkie anioły Stare Dobre Małżeństwo


WSTĘP

e|----a---0-------0-------0------0------0------0------0------0------0------0------0------0-------0------0------0------0------0--0-0-0-----0-----0--0-0-0--|
H|-------1-------1-------1------1------1------1------1------1------1------1------1------1-------1------1------1------1------1--1-1-1-----1-----1--1-1-1--|
G|-------2-------2-------2------2------2------2------2------2--2---2--2---2-0h2--2-0h2--2-------2------2------2------2------2--2-2-2-----2-----2--2-2-2--|
D|-------2---2---2-------2--0h2-2------2---2--2------2--0h2-2------2------2------2------2---2---2---2--2-0h2--2-0h2--2------2--2-2-2-0h2-2-----2--2-2-2--|
A|---0---------------0--------------0------------0----------------------------------------------------------------------0-------------------0------------|
E|-------------------------------------------------------------------------------------------------------------------------------------------------------|

ZWROTKA

e|-----a--0-------0-------0------G-------3-------3-------3--------|
H|-------1-------1-------1-------------0-------0-------0--------|
G|-------2-------2-------2-------------0-------0-------0--------|
D|-------2---2---2-------2--0h2--------0---0---0-------0--------|
A|---0---------------0----------0--2---2-------2---2---2--0h2---|
E|-----------------------------------------------------------3--|


e|----a---0-------0-------0--------e-----0-------0-------0--------|
H|-------1-------1-------1-------------0-------0-------0--------|
G|-------2-------2-------2-------------0-------0-------0--------|
D|-------2---2---2-------2--0h2--------2---2---2-------2--------|
A|---0---------------0----------0--2---2-----------2---2--0h2---|
E|-----------------------------------------------------------3--|



e|-----C--0-------0---G----3--------C------0-------0-------F1-1-----|
H|-------1-------1-------0--------------1-------1-------1-1-----|
G|-------0-------0-------0--------------0-------0-------2-2-----|
D|-------2---2---2-------0--------------2---2---2-------3-3-----|
A|---3---3-------3---2---2--0H2-----3---3-------3-------3-3-----|
E|-------0-------0-------3------3-------0-------0-------1-1-----|



e|-----C--0-------0---G----3----------a----0-------0---e----0-------0---a----0--------|
H|-------1-------1-------0--------------1-------1-------0-------0-------1--------|
G|-------0-------0-------0--------------2-------2-------0-------0-------2--------|
D|-------2---2---2-------0--------------2---2---2-------2---2---2-------2--0H2---|
A|---3---3-------3---2---2--0H2-----0---------------2---2-------2---0----------0-|
E|-------0-------0-------3------3------------------------------------------------|


REFREN

C G a


Oceń to opracowanie
Ocena czytelników: Niczego sobie+ 3 głosy
Kontrybucje:
GRAFIK
GRAFIK
gosjusz
gosjusz
anonim
  • studentka
    Kto "uje" kreskuje, ten ma same dwóje :P
    · Zgłoś · 7 lat temu
  • Marcin
    paula
    dedykuje Ci słownik ortograficzny.
    · Zgłoś · 7 lat temu
  • slash
    fajna ta piosenka Starego Dobrego Małżeństwa po prostu kocham ten zespół :):) pewnie nawet nie znasz i tak mówisz ;]
    · Zgłoś · 13 lat temu
  • Marcin
    seba
    dedykuje to przez U zwykle
    · Zgłoś · 14 lat temu
  • Marcin
    Vrt
    Gr8 tab, thx :)
    · Zgłoś · 14 lat temu
  • Marcin
    Valther
    przydał by sie do tego text
    · Zgłoś · 14 lat temu
  • Marcin
    ja
    gupia najlepsza jest Scatman 2003 Scatmana Johna
    · Zgłoś · 15 lat temu