0

4 Degrees Tool

--------------------------------------------------------------------------------


Tab for 4 Degrees

Transcribed by Darryl Gates  (john.gates@bbs.logicnet.com)



Special Notes:
I've tried to transcribe everything as well as I can hear it, but
Adam's doing a lot of very subtle things with his picking technique,
as well as using the palm of his picking hand to control very
delicately the ringing (or muting) of notes. This should be a good
starting point for most of the fingering, but I'd recommend listening
very closely to the way he plays it to get the groove of the verses.
Also, some of the patterns that repeat don't repeat exactly, but I
didn't feel like typing the same thing many times because he plays
one or two notes different, so again, listen to the album to hear
exactly what's going on.

Drop D Tuning

b  = bend
p  = pull-off
h  = hammer-on
/  = slide up
\  = slide down
~  = pick harmonic
() = note that is more implied than played outright


                                             3x
|----------------------------------------------|
|----5----5--5--5----5----5--5--5--6-\-5--5----|
|*---4----4--4--4----4----4--4--4--5-\-4--4---*|
|*---0h2--2--2--2----2----2--2--2--3-\-2--2---*|
|----------------------------------------------|
|----------------------------------------------|


|-----------------------------------------------|
|----5----5--5--5----5----5--5--5--6-\-5--5-/---|
|----4----4--4--4----4----4--4--4--5-\-4--4-/---|
|----0h2--2--2--2----2----2--2--2--3-\-2--2-/---|
|-----------------------------------------------|
|-----------------------------------------------|


|---------------------------------------------------------------|
|---10---10-10--8--8-/--13--8--8----8--8-\-6----6---6--6--6-/---|
|---9----9--9---7--7-/--12--7--7----7--7-\-5----5---5--5--5-/---|
|---7----7--7---5--5-/--10--5--5----5--5-\-3----3---3--3--3-/---|
|---------------------------------------------------------------|
|---------------------------------------------------------------|


|-------------------------------------------------|
|---10---10-10--8--8-/--13--8--8----8--8-\-6--6---|
|---9----9--9---7--7-/--12--7--7----7--7-\-5--5---|
|---7----7--7---5--5-/--10--5--5----5--5-\-3--3---|
|-------------------------------------------------|
|-------------------------------------------------|


                                                           2x
|---------------------------------|--------------------------|
|---------------------------------|--------------------------|
|*--------------------------------|-------------------------*|
|*--------------------------------|-------------------------*|
|---0h2--2---0h2--2---2--3-3-3-2--|--0h2--2---0h2--2-----3---|
|---0h2--2-x-0h2--2-x-2--3-3-3-2--|--0h2--2-x-0h2--2--x--3---|


                                                                 2x
|---------------------------------|--------------------------------|
|---------------------------------|--------------------------------|
|---------------------------------|*------------------------------*|
|---------------------------------|*------------------------------*|
|---0h2---------------------------|--------------------------------|
|---0h2--2--0--2-x-2--0--3-3-2(0)-|--0h2--2-0-2--x-2--0--3-3-2(0)--|


|------------------------------|
|------------------------------|
|------------------------------|
|------------------------------|
|------------------------------|
|--0h2--2-0-2--x--2--/--10-----|

                                                              2x
|----------------------------------|----------------------------|
|----------------------------------|----------------------------|
|*---------------------------------|---------------------------*|
|*---------------------------------|---------------------------*|
|--(0h2)------(2)------------------|-(0h2)------(2)---------3---|
|---0h2--2--0--2--x-2--0--3-3-2(0)-|--0h2--2--0--2--x-2--0--3---|


                                 3x
|----------------------------------|---------------------------------|
|----------------------------------|---------------------------------|
|*--------------------------------*|---------------------------------|
|*--------------------------------*|---------------------------------|
|----------------------------------|---------------------------------|
|---0h2--2--0-2--x-2--0--3-3-2(0)--|--0h2--2--0-2---0h2p0-3p2-0h2----|
                                                    |----ph.----|


                            4x
|-----------------------------|
|-------5---------------------|
|*------4--------------------*|
|*--0h2---2------------------*|
|---0h2---2-------------------|
|---0h2---2---0h2p0-3p2-0h2---|
              |----ph.----|


                                                        3x
|---------------------------------------------------------|
|---10---10-10-----8-/-13-----8---8--8-----6---6---6--6---|
|*--9----9--9------7-/-12-----7---7--7-----5---5---5--5--*|
|*--7----7--7------5-/-10-----5---5--5-----3---3---3--3--*|
|---7----7--7--0---5-/-10--0--5---5--5--0--3---3---3--3---|
|---7----7--7--0---5-/-10--0--5---5--5--0--3---3---3--3---|


                              3x
|-------------------------------|-----------------------|
|-------5-----5--5--6-\-5-5-5---|------5-------5--5--6--|
|*------4-----4--4--5-\-4-4-4--*|------4-------4--4--5--|
|*--0h2-2-2-2-2--2--3-\-2-2-2--*|--0h2-2-2-2---2--2--3--|
|---0h2---2-2-------------2-2---|--0h2---2-2---2--2--3--|
|---0h2---2-2-------------2-2---|--0h2---2-2---2--2--3--|


                                 3x
|----------------------------------|---------------------------------|
|----------------------------------|---------------------------------|
|*--------------------------------*|---------------------------------|
|*--------------------------------*|---------------------------------|
|----------------------------------|---------------------------------|
|---0h2--2--0-2--x-2--0--3-3-2(0)--|--0h2--2--0-2---0h2p0-3p2-0h2----|
                                                    |----ph.----|

                            4x
|-----------------------------|
|-------5---------------------|
|*------4--------------------*|
|*--0h2---2------------------*|
|---0h2---2-------------------|
|---0h2---2---0h2p0-3p2-0h2---|
              |----ph.----|

                                                        3x
|---------------------------------------------------------|
|---10---10-10-----8-/-13-----8---8--8-----6---6---6--6---|
|*--9----9--9------7-/-12-----7---7--7-----5---5---5--5--*|
|*--7----7--7------5-/-10-----5---5--5-----3---3---3--3--*|
|---7----7--7--0---5-/-10--0--5---5--5--0--3---3---3--3---|
|---7----7--7--0---5-/-10--0--5---5--5--0--3---3---3--3---|


|--------------------------------------------------------------------|
|-15----15--15--15--11--11--11--11-----------------------------------|
|-14----14--14--14--10--10--10--10--12--12--12--12--10--10--10----10-|
|-12----12--12--12--8---8---8---8---12--12--12--12--10--10--10----10-|
|-12----12--12--12--8---8---8---8---10--10--10--10--8---8---8---7/8--|
|-12----12--12--12--8---8---8---8------------------------------------|


|-----------------------------------------------------|
|------15----15--15---11--11--11--11------------------|
|------14----14--14---10--10--10--10--12--12--12------|
|-10-/-12----12--12---8---8---8---8---12--12--12------|
|-10-/-12----12--12---8---8---8---8---10--10--10--8---|
|-10-/-12----12--12---8---8---8---8-------------------|


                                                             2x
|----------------------------------|---------------------------|
|----------------------------------|---------------------------|
|*---------------------------------|--------------------------*|
|*--0h2---2---2-2------------------|--0h2---2----2---------3--*|
|---0h2---2---2-2---x-x-x--3-3-2-2-|--0h2---2--x-2---x-x-x-3---|
|---0h2---2---2-2---x-x-x--3-3-2-2-|--0h2---2--x-2---x-x-x-3---|


                              4x
|-------------------------------|
|-------5-----5--5--6-\-5-5-5---|
|*------4-----4--4--5-\-4-4-4--*|
|*--0h2-2-2-2-2--2--3-\-2-2-2--*|
|---0h2---2-2-------------2-2---|
|---0h2---2-2-------------2-2---|


                                                        3x
|---------------------------------------------------------|
|---10---10-10-----8-/-13-----8---8--8-----6---6---6--6---|
|*--9----9--9------7-/-12-----7---7--7-----5---5---5--5--*|
|*--7----7--7------5-/-10-----5---5--5-----3---3---3--3--*|
|---7----7--7--0---5-/-10--0--5---5--5--0--3---3---3--3---|
|---7----7--7--0---5-/-10--0--5---5--5--0--3---3---3--3---|


                                      3x
|---------------------------------------|----------------|
|---------------------------------------|----------------|
|*-------------------------------------*|----------------|
|*--2-----------/--9---12---10---10p0--*|---7---------7--|
|---2-----------/--9---12---10---10p0---|---7---------7--|
|---2-----------/--9---12---10---10p0---|---7---------7--|


|--------------------------|-----------------------------|
|--------------------------|-----------------------------|
|--------------------------|-----------------------------|
|--2-2---2---2-2-----------|--2-2---2---2-2-----------3--|
|--2-2---2---2-2-----------|--2-2---2---2-2-----------3--|
|--2-2---2---2-2-----------|--2-2---2---2-2-----------3--|


|--------------------------|-----------------------------------|
|--------------------------|-----------------------------------|
|--------------------------|-----------------------------------|
|--2-2---2---2-2-----------|--2-2---2---2-2--------0-2-0-3--0--|
|--2-2---2---2-2-----------|--2-2---2---2-2--------0-2-0-3--0--|
|--2-2---2---2-2-----------|--2-2---2---2-2--------0-2-0-3--0--|


                                            8x
|---------------------------------------------|
|---5---5---5--5-------19--19--19--19--19-----|
|*--4---4---4--4-------17--17--17--17--17----*|
|*--2---2---2--2-------15--15--15--15--15----*|
|---2---2---2--2-------15--15--15--15--15--0--|
|---2---2---2--2-------15--15--15--15--15--0--|


                                          8x
|-------------------------------------------|
|-------------------------------------------|
|*-----------------------------------------*|
|*-----------------------------------------*|
|-------------------------------------------|
|---0h2--(0h2--0h2)--2---2---2---0--3-3-2---|
         |-echoes-|

                                       4x
|----------------------------------------|
|----------------------------------------|
|*--------------------------------------*|
|*--------------------------------------*|
|----------------------------------------|
|---0h2--x--2--x-x-2--x-2--0--3-3-2-0----|

                                                        6x
|---------------------------------------------------------|
|---10---10-10-----8-/-13-----8---8--8-----6---6---6--6---|
|*--9----9--9------7-/-12-----7---7--7-----5---5---5--5--*|
|*--7----7--7------5-/-10-----5---5--5-----3---3---3--3--*|
|---7----7--7--0---5-/-10--0--5---5--5--0--3---3---3--3---|
|---7----7--7--0---5-/-10--0--5---5--5--0--3---3---3--3---|


(Drums & Bass, no Guitar for a few bars)


|---------------------------------------------------------------|
|---------------------------------------------------------------|
|---------------------------------------------------------------|
|------------------2--------------------------------------------|
|------------------2--------------------------------------------|
|------------------2--------------------------------------------|
                Swell in with Volume control, then feeds back


                                         3x
|------------------------------------------|
|------------------------------------------|
|*----------------------------------------*|
|*--3-2-----3-2-----3-3-2-0----2---2---3--*|
|---3-2-----3-2-----3-3-2-0----2---2---3---|
|---3-2-----3-2-----3-3-2-0----2---2---3---|


|------------------------|---------------------------------|
|------------------------|---------------------------------|
|------------------------|---------------------------------|   The
|--3-2----3-2----3-3-2-0-|-2--2--2----2--2--2----2--2--3---|   End
|--3-2----3-2----3-3-2-0-|-2--2--2----2--2--2----2--2--3---|
|--3-2----3-2----3-3-2-0-|-2--2--2----2--2--2----2--2--3---|

Oceń to opracowanie
Kontrybucje:
s314ryt
s314ryt

Dodaj własne wykonanie

Umiesz zagrać tą piosenkę? Nagraj swoje wykonanie i pokaż innym jak grasz!
anonim