0

Eulogy Tool

Tab for Eulogy

Transcribed by Brad Lee Lansford (theboogieman@juno.com)




--------------------------------------------------------------------------------


TAB - Eulogy
Album - AENIMA
Music - Tool
Lyrics - Maynard James Keenan
Tuning - Dropped D
Notes - Sections played once unless noted otherwise.

From the transcriber:  This tablature is my interpretation
of Eulogy. It is not suposed to be a perfect transcription.
If you feel there needs to be corrections to it, mail me.
Personally, I feel it is pretty close to what Adam Jones
plays. But I don't think your gonna get any closer. I can't
tell you all of the names of each section & riff, but I
know how to play them. Other than that, I hope this helps.

Key -
  pm = palm muting  \ = slide down    X++ = pick scrapes
   h = hammer-on    / = slide up     fdbk = feedback
   p = pull-off     X = muted string    b = bend
 (0) = fingered but not strumed         ~ = let ring


Introduction -

 e ||---------------------------------------------------------||
 B  ||---------------------------------------------------------||
 G ||--4-4--7-7--5-5--9-9--4-4--7-7--2-2--5-5--4-4--0-0--2-2--||
 D ||---------------------------------------------------------||
 A ||---------------------------------------------------------||
 D ||---------------------------------------------------------||

 e ||-----||
 B  ||-----||
 G ||--4--||  21x
 D ||-----||
 A ||-----||
 D ||-----||

 e ||---------------------------------------------------------||
 B  ||---------------------------------------------------------||
 G ||--4-4--7-7--5-5--9-9--4-4--7-7--2-2--5-5--4-4--0-0--2-2--||
 D ||---------------------------------------------------------||
 A ||---------------------------------------------------------||
 D ||---------------------------------------------------------||

 e ||-----------------||       ||-----||
 B  ||-----------------||       ||-----||
 G ||--4--4--4--4--4--||       ||--4--||
 D ||-----------------||  4x   ||-----||  21x
 A ||-----------------||       ||-----||
 D ||-----------------||       ||-----||

 e ||--------------||
 B  ||--------------||
 G ||--4-4--4-4----||
 D ||--------------||  4x
 A ||--------------||
 D ||--------------||

 e ||--------------------------------||
 B  ||--------------------------------||
 G ||--4--4--4--4/-5--5--5--5--5\-4--||
 D ||--------------------------------||  2x
 A ||--------------------------------||
 D ||--------------------------------||

         E5
 e ||---------||
 B  ||---------||
 G ||---------||
 D ||----2----||  4x
 A ||--X-2----||
 D ||--x-2----||

       pm.........................
 e ||-------------------------------||
 B  ||-------------------------------||
 G ||-------------------------------||
 D ||-------------------------------|| 9x
 A ||--0-2-2-2--2-2-2-2--0-3-3-0-0--||
 D ||--0-2-2-2--2-2-2-2--0-3-3-0-0--||

       E5
 e ||--------------------||
 B  ||--------------------||
 G ||--------------------||
 D ||--2-2-2-2--2-2-2-2--||
 A ||--2-2-2-2--2-2-2-2--||
 D ||--2-2-2-2--2-2-2-2--||

       A5      B5
 e ||-------------||
 B  ||-------------||
 G ||-------------||
 D ||--7---7-7-9--||
 A ||--7---7-7-9--||
 D ||--7---7-7-9--||

       D E5     D E5                  G5       B5
 e ||---------------------------------------------||
 B  ||---------------------------------------------||
 G ||---------------------------------------------||
 D ||--0-2-2-2--0-2-2-2-2-2-2-2-2-2-2/5-5-5-5--9--||
 A ||--0-2-2-2--0-2-2-2-2-2-2-2-2-2-2/5-5-5-5--9--||
 D ||--0-2-2-2--0-2-2-2-2-2-2-2-2-2-2/5-5-5-5--9--||

       D E5     D E5                  A5       B5
 e ||---------------------------------------------||
 B  ||---------------------------------------------||
 G ||---------------------------------------------||
 D ||--0-2-2-2--0-2-2-2-2-2-2-2-2-2-2/7-7-7-7--9--||
 A ||--0-2-2-2--0-2-2-2-2-2-2-2-2-2-2/7-7-7-7--9--||
 D ||--0-2-2-2--0-2-2-2-2-2-2-2-2-2-2/7-7-7-7--9--||

(both repeated 3x, then)

 e ||----------------------------------||
 B  ||----------------------------------||
 G ||----------------------------------||
 D ||--0-2-2-2--0-2-2-2-2-2-2-2-2-2-2--||
 A ||--0-2-2-2--0-2-2-2-2-2-2-2-2-2-2--||
 D ||--0-2-2-2--0-2-2-2-2-2-2-2-2-2-2--||

       pm.........................
 e ||-------------------------------||
 B  ||-------------------------------||
 G ||-------------------------------||
 D ||-------------------------------|| 2x
 A ||--0-2-2-2--2-2-2-2--0-3-3-0-0--||
 D ||--0-2-2-2--2-2-2-2--0-3-3-0-0--||

(Played over 4 verse lines.)
 e ||---------------------------------------------------------||
 B  ||---------------------------------------------------------||
 G ||--4-4--7-7--5-5--9-9--4-4--7-7--2-2--5-5--4-4--0-0--2-2--||
 D ||---------------------------------------------------------||
 A ||---------------------------------------------------------||
 D ||---------------------------------------------------------||

       pm.........................
 e ||-------------------------------||
 B  ||-------------------------------||
 G ||-------------------------------||
 D ||-------------------------------|| 6x
 A ||--0-2-2-2--2-2-2-2--0-3-3-0-0--||
 D ||--0-2-2-2--2-2-2-2--0-3-3-0-0--||

       E5     E5     F5 D5
 e ||----------------------||
 B  ||----------------------||
 G ||----------------------||
 D ||--2--2---2--2---3--0--||  3x
 A ||--2--2---2--2---3--0--||
 D ||--2--2---2--2---3--0--||

       E5
 e ||--------------------||
 B  ||--------------------||
 G ||--------------------||
 D ||--2-2-2-2--2-2-2-2--||
 A ||--2-2-2-2--2-2-2-2--||
 D ||--2-2-2-2--2-2-2-2--||

      A5      B5
 e ||-------------||
 B  ||-------------||
 G ||-------------||
 D ||--7---7-7-9--||
 A ||--7---7-7-9--||
 D ||--7---7-7-9--||

       D E5     D E5                  G5       B5
 e ||---------------------------------------------||
 B  ||---------------------------------------------||
 G ||---------------------------------------------||
 D ||--0-2-2-2--0-2-2-2-2-2-2-2-2-2-2/5-5-5-5--9--||
 A ||--0-2-2-2--0-2-2-2-2-2-2-2-2-2-2/5-5-5-5--9--||
 D ||--0-2-2-2--0-2-2-2-2-2-2-2-2-2-2/5-5-5-5--9--||

       D E5     D E5                  A5       B5
 e ||---------------------------------------------||
 B  ||---------------------------------------------||
 G ||---------------------------------------------||
 D ||--0-2-2-2--0-2-2-2-2-2-2-2-2-2-2/7-7-7-7--9--||
 A ||--0-2-2-2--0-2-2-2-2-2-2-2-2-2-2/7-7-7-7--9--||
 D ||--0-2-2-2--0-2-2-2-2-2-2-2-2-2-2/7-7-7-7--9--||

       D E5     D E5                  G5       B5
 e ||---------------------------------------------||
 B  ||---------------------------------------------||
 G ||---------------------------------------------||
 D ||--0-2-2-2--0-2-2-2-2-2-2-2-2-2-2/5-5-5-5--9--||
 A ||--0-2-2-2--0-2-2-2-2-2-2-2-2-2-2/5-5-5-5--9--||
 D ||--0-2-2-2--0-2-2-2-2-2-2-2-2-2-2/5-5-5-5--9--||

       D E5     D E5                  A5       B5
 e ||---------------------------------------------||
 B  ||---------------------------------------------||
 G ||---------------------------------------------||
 D ||--0-2-2-2--0-2-2-2-2-2-2-2-2-2-2/7-7--7---9--||
 A ||--0-2-2-2--0-2-2-2-2-2-2-2-2-2-2/7-7--7---9--||
 D ||--0-2-2-2--0-2-2-2-2-2-2-2-2-2-2/7-7--7---9--||

       D E5     D E5                  G5       B5
 e ||---------------------------------------------||
 B  ||---------------------------------------------||
 G ||---------------------------------------------||
 D ||--0-2-2-2--0-2-2-2-2-2-2-2-2-2-2/5-5-5-5--9--||
 A ||--0-2-2-2--0-2-2-2-2-2-2-2-2-2-2/5-5-5-5--9--||
 D ||--0-2-2-2--0-2-2-2-2-2-2-2-2-2-2/5-5-5-5--9--||

       D E5     D E5                  A5       B5
 e ||---------------------------------------------||
 B  ||---------------------------------------------||
 G ||---------------------------------------------||
 D ||--0-2-2-2--0-2-2-2-2-2-2-2-2-2-2/7-7-7-7--9--||
 A ||--0-2-2-2--0-2-2-2-2-2-2-2-2-2-2/7-7-7-7--9--||
 D ||--0-2-2-2--0-2-2-2-2-2-2-2-2-2-2/7-7-7-7--9--||

       D E5     D E5                  G5       B5
 e ||---------------------------------------------||
 B  ||---------------------------------------------||
 G ||---------------------------------------------||
 D ||--0-2-2-2--0-2-2-2-2-2-2-2-2-2-2/5-5-5-5--9--||
 A ||--0-2-2-2--0-2-2-2-2-2-2-2-2-2-2/5-5-5-5--9--||
 D ||--0-2-2-2--0-2-2-2-2-2-2-2-2-2-2/5-5-5-5--9--||

       D E5     D E5
 e ||----------------------------------||
 B  ||----------------------------------||
 G ||----------------------------------||
 D ||--0-2-2-2--0-2-2-2-2-2-2-2-2-2-2--||
 A ||--0-2-2-2--0-2-2-2-2-2-2-2-2-2-2--||
 D ||--0-2-2-2--0-2-2-2-2-2-2-2-2-2-2--||

 e ||----------------------------------------||
 B ||--10-10-10-10-10/13--8--8--8--8--8-/13--||
 G ||--9--9--9--9--9-/11--7--7--7--7--7-/11--||
 D ||--7--7--7--7--7-/9---5--5--5--5--5-/9---||  3x
 A ||--7--7--7--7--7-/9---5--5--5--5--5-/9---||
 D ||--7--7--7--7--7-/9---5--5--5--5--5-/9---||

 e ||------------------------------------------||
 B ||--10-10-10-10-10/13--8--8--8--8--13-11-8--||
 G ||--9--9--9--9--9-/11--7--7--7--7--11-9--7--||
 D ||--7--7--7--7--7-/9---5--5--5--5--9--7--5--||
 A ||--7--7--7--7--7-/9---5--5--5--5--9--7--5--||
 D ||--7--7--7--7--7-/9---5--5--5--5--9--7--5--||

 e ||---------------------------------------||
 B  ||---------------------------------------||
 G ||---------------------------------------||
 D ||--0--2-X--2-X--X-2/(5)-5--X--5-(7h)-7--||  4x
 A ||--0--2-X--2-X--X-2/(5)-5--X--5-(7h)-7--||
 D ||--0--2-X--2-X--X-2/(5)-5--X--5-(7h)-7--||

 e ||--------------------------------------||
 B  ||--------------------------------------||
 G ||--------------------------------------||
 D ||--0--2-X--2-X--X-2/(5)-5--5--5--5--5--||  3x
 A ||--0--2-X--2-X--X-2/(5)-5--5--5--5--5--||
 D ||--0--2-X--2-X--X-2/(5)-5--5--5--5--5--||

 e ||-------------------------------------------||
 B  ||-------------------------------------------||
 G ||-------------------------------------------||
 D ||--0--2-X--2-X--X-2/(5)-5--5--5--5--0~~~~~--||
 A ||--0--2-X--2-X--X-2/(5)-5--5--5--5--0~~~~~--||
 D ||--0--2-X--2-X--X-2/(5)-5--5--5--5--0~~~~~--||

       (bass)      E6
 e ||----------|------------||
 B  ||----------|------------||
 G ||----------|--(9h)------||
 D ||----------|--(9h)--X+--||
 A ||----------|--(7h)------||
 D ||----------|------------||

 e ||--------------------------||
 B ||-----------------------7--||
 G ||--------------------------||
 D ||--X+++++------------9-----||  4x
 A ||------X+++++-----7--------||
 D ||----------X++++-----------||

 e ||-------------------------------------------7-------||
 B ||--------------7---------------------7--------7-----||
 G ||--(9)---------------------------------(9)----------||
 D ||--(9)------9---------------------9----(9)-----9----||
 A ||--(7)---7---------------------7-------(7)-------7--||
 D ||---------------------------------------------------||

 e ||---------------------------------------------------||
 B ||--------7---------------------7--------------------||
 G ||--------------------------------------(9)----------||
 D ||-----9-----X++++++++-------9----------(9)----------||
 A ||--7----------X++++++++--7-------------(7)----------||
 D ||---------------------------------------------------||

       pm..........................
 e ||--------------------------------||
 B  ||--------------------------------||
 G ||--------------------------------||
 D ||--------------------------------||  4x
 A ||--0-2-2-2-2-2-0-3--0-0-5-5-0-0--||
 D ||--0-2-2-2-2-2-0-3--0-0-5-5-0-0--||

       D E5    D F5  D  G5
 e ||------------------------||
 B  ||------------------------||
 G ||------------------------||
 D ||--0-2--2--0-3-3-0--5-5--||  4x
 A ||--0-2--2--0-3-3-0--5-5--||
 D ||--0-2--2--0-3-3-0--5-5--||

       E6   B5 C5  A5
 e ||-----------------------||
 B ||--9--------------------||
 G ||--9-X------------------||
 D ||--9-XX-9-X10----7---7--||  3x
 A ||--7--X-9-X10--7-7-7-7--||
 D ||-------9-X10--7-7-7-7--||

       E6   B5 C5  A5      D5
 e ||------------------------------||
 B ||--9---------------------------||
 G ||--9-X-------------------------||
 D ||--9-XX-9-X10--7--7----0~~~~~--||
 A ||--7--X-9-X10--7--7----0~~~~~--||
 D ||-------9-X10--7--7----0~~~~~--||

 e ||--===--||
 B ||--=R=--||
 G ||--=E=--||
 D ||--=S=--||
 A ||--=T=--||
 D ||--===--||

 e ||-------------||
 B  ||-------------||
 G ||-------------||
 D ||--2-2-2-2----||  10x
 A ||--2-2-2-2----||
 D ||--2-2-2-2----||

 e ||-----------||
 B  ||-----------||
 G ||-----------||
 D ||--2-2-2-/--||
 A ||--2-2-2-/--||
 D ||--2-2-2-/--||

 e ||----------||
 B ||------7b--||
 G ||----------||
 D ||----9-----||  4x
 A ||--7-------||
 D ||----------||

       E5 D5 Nc        E5 D5 Nc
 e ||---------------------------------||
 B  ||---------------------------------||
 G ||---------------------------------||
 D ||--2--0--5b~~~~~~--2--0--5b~-4-3--||  4x
 A ||--2--0------------2--0-----------||
 D ||--2--0------------2--0-----------||

 e ||----------||       ||-------------||
 B  ||----------||       ||-------------||
 G ||--7bp9bh--||       ||--7--9b~-7\--||
 D ||----------||  20x  ||-------------||
 A ||----------||       ||-------------||
 D ||----------||       ||-------------||

 e ||--------------------------||      ||------------||
 B  ||--------------------------||      ||------------||
 G ||-----------------9b~-9b~--||      ||------------||
 D ||--------------------------||  3x  ||------------||
 A ||--5-7-5-7-5-7-5-----------||      ||--5-7\~~~~--||
 D ||--------------------------||      ||------------||

       D E5    D F5  D  G5
 e ||------------------------||
 B  ||------------------------||
 G ||------------------------||
 D ||--0-2--2--0-3-3-0--5-5--||  4x
 A ||--0-2--2--0-3-3-0--5-5--||
 D ||--0-2--2--0-3-3-0--5-5--||

       E6   B5 C5  A5
 e ||-----------------------||
 B ||--9--------------------||
 G ||--9-X------------------||
 D ||--9-XX-9-X10----7---7--||  4x
 A ||--7--X-9-X10--7-7-7-7--||
 D ||-------9-X10--7-7-7-7--||

 e ||--------------------------------------||
 B ||--9---9-----9--9----------------------||
 G ||--9---9--9--9--9--10-10-10------------||
 D ||--9---9--9--9--9--10-10-10-10----7----||
 A ||--7---7--7--7--7--8--8--8--10----7----||
 D ||---------------------------10----7----||

 e ||--------------------------------||
 B ||--9---9-----9--9----------------||
 G ||--9---9--9--9--9--10-10-10------||
 D ||--9---9--9--9--9--10-10-10-10\--||
 A ||--7---7--7--7--7--8--8--8--10\--||
 D ||---------------------------10\--||

 e ||------------||
 B  ||------------||
 G ||------------||
 D ||--2-2-2-2---|| 7x
 A ||--2-2-2-2---||
 D ||--2-2-2-2---||


Oceń to opracowanie
Kontrybucje:
s314ryt
s314ryt

Dodaj własne wykonanie

Umiesz zagrać tą piosenkę? Nagraj swoje wykonanie i pokaż innym jak grasz!
anonim