0

Bottom Tool

Tab for Bottom

Transcribed by Jack R. Davis (JackZombie) (davisjr@ix.netcom.com)






--------------------------------------------------------------------------------


Guitar Tab for Bottom  (the accurate Undertow CD version)



     p = pull off
     h = hammer on
     X = muted string
     / = slide up
     \ = slide down
     ~ = vibrato
     PM = palm mute
     AH = artificial harmonics
     (0) = ghost note (carried over from a prevoius note)

Use dropped D tuning (Drop the low E string to a D)



E|--------------------------------|--------------------------------|
B |--------------------------------|--------------------------------|
G|---------h-----p-----h-----p----|---------h-----p----h-----p-----|
D|-5---0--2-3---3-2-0-2-3---3-2-0-|-5---0--2-3---3-2-0-2-3---3-2-0-|
A|-5---0--2-3---3-2-0-2-3---3-2-0-|-5---0--2-3---3-2-0-2-3---3-2-0-|
D|-5---0--2-3-0-3-2-0-2-3-0-3-2-0-|-5---0--2-3-0-3-2-0-2-3---3-2-0-|


E|--------------------------------|--------------------------------|------|
B |--------------------------------|--------------------------------|------|
G|---------h-----p-----h-----p----|---------h-----p------h---------|------|
D|-5---0--2-3---3-2-0-2-3---3-2-0-|-5---0--2-3---3-2-0--2-3------3-|-0----|
A|-5---0--2-3---3-2-0-2-3---3-2-0-|-5---0--2-3---3-2-0--2-3------3-|-0----|
D|-5---0--2-3-0-3-2-0-2-3-0-3-2-0-|-5---0--2-3-0-3-2-0--2-3------3-|-0----|


drums and bass continue for 4 bars....


                                4x                               4x
E|--------------------------------|--------------------------------|
B |--------------------------------|--------------------------------|
G|--------------------------------|--------------------------------|
D|--------XXXXXXXXX--------XX-----|--------XXXXXXXXX--------XX-----|
A|--------XXXXXXXXX--------XX-3(3)|--------XXXXXXXXX--------XX-3(3)|
D|-0--2-3-XXXXXXXXX-0--2-3-XX---3-|-0--2-3-XXXXXXXXX-0--2-3-XX---3-|
                                    PM-----------------------------|


E|--------------------------------|--------------------------------|
B |--------------------------------|--------------------------------|
G|---------h-----p-----h-----p----|---------h-----p----h-----p-----|
D|-----0--2-3---3-2-0-2-3---3-2-0-|-5---0--2-3---3-2-0-2-3---3-2-0-|
A|-----0--2-3---3-2-0-2-3---3-2-0-|-5---0--2-3---3-2-0-2-3---3-2-0-|
D|-----0--2-3-0-3-2-0-2-3-0-3-2-0-|-5---0--2-3-0-3-2-0-2-3---3-2-0-|


E|--------------------------------|--------------------------------|
B |--------------------------------|--------------------------------|
G|---------h-----p-----h-----p----|---------h-----p----h-----p-----|
D|-5---0--2-3---3-2-0-2-3---3-2-0-|-5---0--2-3---3-2-0-2-3---3-2-0-|
A|-5---0--2-3---3-2-0-2-3---3-2-0-|-5---0--2-3---3-2-0-2-3---3-2-0-|
D|-5---0--2-3-0-3-2-0-2-3-0-3-2-0-|-5---0--2-3-0-3-2-0-2-3---3-2-0-|


                                4x                               4x
E|--------------------------------|--------------------------------|
B |--------------------------------|--------------------------------|
G|--------------------------------|--------------------------------|
D|--------XXXXXXXXX--------XX-----|--------XXXXXXXXX--------XX-----|
A|--------XXXXXXXXX--------XX-3(3)|--------XXXXXXXXX--------XX-3(3)|
D|-0--2-3-XXXXXXXXX-0--2-3-XX---3-|-0--2-3-XXXXXXXXX-0--2-3-XX---3-|
   PM-----------------------------|                     AH      AH


E|--------------------------------|--------------------------------|
B |--------------------------------|--------------------------------|
G|---------h-----p-----h-----p----|---------h-----p----h-----p-----|
D|-----0--2-3---3-2-0-2-3---3-2-0-|-5---0--2-3---3-2-0-2-3---3-2-0-|
A|-----0--2-3---3-2-0-2-3---3-2-0-|-5---0--2-3---3-2-0-2-3---3-2-0-|
D|-----0--2-3-0-3-2-0-2-3-0-3-2-0-|-5---0--2-3-0-3-2-0-2-3---3-2-0-|


E|--------------------------------|--------------------------------|
B |--------------------------------|--------------------------------|
G|---------h-----p-----h-----p----|---------h-----p------h---------|
D|-5---0--2-3---3-2-0-2-3---3-2-0-|-5---0--2-3---3-2-0--2-3------3-|
A|-5---0--2-3---3-2-0-2-3---3-2-0-|-5---0--2-3---3-2-0--2-3------3-|
D|-5---0--2-3-0-3-2-0-2-3-0-3-2-0-|-5---0--2-3-0-3-2-0--2-3------3-|


                                8x
E|--------------------------------|------|
B |--------------------------------|------|
G|--------------h-----------------|------|
D|-3/10---0----5-6-5----0----3----|-0----|
A|-3/10---0----5-6-5----0----3----|-0----|
D|-3/10---0----5-6-5----0----3----|-0----|


add numerous pick scrapes, bends, harmonics and feedback here.....


E|--------------------------------|--------------------------------|
B |--------------------------------|--------------------------------|
G|--------------------------------|---------------h----------------|
D|--------------------------------|-------------10-12b13----12\----|
A|-----3--------------------------|-----3--------------------------|
D|-3-------0----------------------|-3-------0----------------------|


                                2x  spoken interlude....        10x
E|--------------------------------|--------------------------------|
B |--------------------------------|--------------------------------|
G|--------------------------------|--------------------------------|
D|--------------------------------|--------------------------------|
A|-----3--------------------------|-----3--------------------------|
D|-3-------0----------------------|-3-------0----------------------|


E|--------------------------------|-------|
B |--------------------------------|-------|
G|--------------------------------|-----5-|
D|---------0----------------------|-3---5-|
A|-----3---0----------------------|-3---3-|
D|-3-------0----------------------|-3-----|


                               8x                                4x
E|--------------------------------|--------------------------------|
B |--------------------------------|--------------------------------|
G|--------------h-----------------|--------------------------------|
D|-3/10---0----5-6-5----0----3----|--------------------------------|
A|-3/10---0----5-6-5----0----3----|--------------------------------|
D|-3/10---0----5-6-5----0----3----|-0----0--3~---0--5~---0--3~---0-|
                                   AH------------------------------|


                               4x                                4x
E|--------------------------------|--------------------------------|
B |--------------------------------|--------------------------------|
G|--------------h-----------------|--------------------------------|
D|-3/10---0----5-6-5----0----3----|--------------------------------|
A|-3/10---0----5-6-5----0----3----|--------------------------------|
D|-3/10---0----5-6-5----0----3----|-0----0--3~---0--5~---0--3~---0-|
                                   AH------------------------------|


                               4x
E|--------------------------------|
B |--------------------------------|
G|--------------h-----------------|
D|-3/10---0----5-6-5----0----3----|
A|-3/10---0----5-6-5----0----3----|
D|-3/10---0----5-6-5----0----3----|


                                                     (both bars) 4x
E|--------------------------------|--------------------------------|
B |--------------------------------|--------------------------------|
G|--------------------------------|--------------------------------|
D|-0----0--3----0--5----0--3----0-|-0----0--3----0--5----0--1----0-|
A|-0----0--3----0--5----0--3----0-|-0----0--3----0--5----0--1----0-|
D|-0----0--3----0--5----0--3----0-|-0----0--3----0--5----0--1----0-|


E|--------------------------------|--------------------------------|
B |--------------------------------|--------------------------------|
G|--------------------------------|--------------------------------|
D|-1----0--1----0--1----0--1----0-|-1-1-0-1-1-0-1-1-0-1------------|
A|-1----0--1----0--1----0--1----0-|-1-1-0-1-1-0-1-1-0-1------------|
D|-1----0--1----0--1----0--1----0-|-1-1-0-1-1-0-1-1-0-1------------|


E|--------------------------------|--------------------------------|
B |--------------------------------|--------------------------------|
G|---------h-----p-----h-----p----|---------h-----p----h-----p-----|
D|-----0--2-3---3-2-0-2-3---3-2-0-|-5---0--2-3---3-2-0-2-3---3-2-0-|
A|-----0--2-3---3-2-0-2-3---3-2-0-|-5---0--2-3---3-2-0-2-3---3-2-0-|
D|-----0--2-3-0-3-2-0-2-3-0-3-2-0-|-5---0--2-3-0-3-2-0-2-3---3-2-0-|


E|--------------------------------|--------------------------------|
B |--------------------------------|--------------------------------|
G|---------h-----p-----h-----p----|---------h-----p----h-----p-----|
D|-5---0--2-3---3-2-0-2-3---3-2-0-|-5---0--2-3---3-2-0-2-3---3-2-0-|
A|-5---0--2-3---3-2-0-2-3---3-2-0-|-5---0--2-3---3-2-0-2-3---3-2-0-|
D|-5---0--2-3-0-3-2-0-2-3-0-3-2-0-|-5---0--2-3-0-3-2-0-2-3---3-2-0-|


play various goodies then end with:


                                 2x
E|---------------------------------|------------------------------|
B |---------------------------------|------------------------------|
G|---------------------------------|------------------------------|
D|---------------------------------|-5-------------0--------------|
A|---------------------------------|-5-------------0--------------|
D|-3-3-3-3-3-3-3-3-3-3-3-3-3-3-3-3-|-5-------------0--------------|

Oceń to opracowanie
Kontrybucje:
s314ryt
s314ryt

Dodaj własne wykonanie

Umiesz zagrać tą piosenkę? Nagraj swoje wykonanie i pokaż innym użytkownikom jak grasz!
anonim