0

Hush Tool

Tab for Hush

Transcribed by Taylor Skidmore (tskid@geocities.com)


--------------------------------------------------------------------------------


(Updated September 1996)



Dropped-D tuning!

Intro (before FUCK YOU!!)
-------------------------
------14-14-X-12-12------
-7----13-13-X-11-11------
-7----11-11-X-9--9-------
-5-----------------------
-------------------------

Main riff (played a few times, muted during verse)
----------------------------
----------------------------
-2/4-4-4-4--XX------------5-
-2/4-4-4-4--XX--2-3-2-0-0-5-
-0/2-2-2-2--XX--2-3-2-0-0-3-
----------------2-3-2-0-0---

Chorus (people tell me this can also be played a step up, do what you want)
-------------------------
-------------------------
-4-4-4-4-4-4-4\2-2-2-2-2-
-4-4-4-4-4-4-4\2-2-2-2-2-
-2-2-2-2-2-2-2\0-0-0-0-0-
-------------------------

Another part...
---------------
---------------
--4--2---------
--4--2--2h3----
--2--0--2h3----
--------2h3----

Part right after that...
--------------------------------
--------------------------------
--------------------------5-5-5-
--3-2-2-3-2-2-3-2-2-3-2-2-5-5-5-
--3-2-2-3-2-2-3-2-2-3-2-2-3-3-3-
--3-2-2-3-2-2-3-2-2-3-2-2-------

        That's about it.  A little freelancing might have to be done here
and there but it shouldn't be too much trouble.  Have fun.


        And that's it.

        Regards,
        -Taylor

Oceń to opracowanie
Kontrybucje:
s314ryt
s314ryt

Dodaj własne wykonanie

Umiesz zagrać tą piosenkę? Nagraj swoje wykonanie i pokaż innym użytkownikom jak grasz!
anonim