0

Opiate Tool

Tab for Opiate

Transcribed by Nathan Simmering (simmerin@icaen.uiowa.edu)

Verified by
slater (dork@sover.net)
Comments: "a little confusing; overall good."




--------------------------------------------------------------------------------



Here's my shot at a tab for Opiate.  It's not perfect, but it's
pretty good.  Show it to your friends or just stick it up on the
page.  If you like it, or get a good reaction, e-mail me and I'll
work up some more.


Opiate
------

Legend
|---------------------------------------------------------|
|                                                         |
|   -----5====---      Sustain                            |
|   ----<5>------      Natural Harmonic                   |
|   ----5^7------      Hammer-on                          |
|   ----7^5------      Pull-Off                           |
|   -----!-------      Accent beat                        |
|                                                         |
|   -------1/2---      1/2 step (1 fret)                  |
|   -----5_/-----      bend                               |
|                                                         |
|                                                         |
|              X4      Repeat four times                  |
|   |:----|----:|                                         |
|   |:----|----:|      Repeat enclosed measures           |
|   |:----|----:|                                         |
|                                                         |
|---------------------------------------------------------|

  Bass arranged for guitar
  Freely       Rall.
 |1 + 2 + 3 + 4 + ||
e|----------------||
B |----------------||
G<5>--------------||
D|---<5>----------||
A|--------0==-2===||
D|----------------||


 Bass arranged for guitar...
 a tempo   N.C. A  B              A  B 
 |1 + 2 + 3 + 4 + |1 + 2 + 3 + 4 + |1 + 2 + 3 + 4 + |1 + 2 + 3 + 4 + |
e|----------------|----------------|----------------|----------------|
B |----------------|----------------|----------------|----------------|
G|----------------|----------------|----------------|----------------|
D|----------------|----------------|----------------|----------------|
A|--------------0-|2============-0-|2============---|----------------|
D|----------------|----------------|----------------|----------------|
 |Choises...    a |problem..       |What...         |Strong...


Guitar 1
  B5    DE5     F5 B5    DE5   F5   B5    DE5     F5 B5    DE5   F5  x6
|:1 + 2 + 3 + 4 + |1 + 2 + 3 + 4 + |1 + 2 + 3 + 4 + |1 + 2 + 3 + 4 + :|
|:----------------|----------------|----------------|----------------:|
|:!---------------|!---------------|!---------------|!---------------:|
|:44444--!----!-!-|44444--!----!---|44444--!----!-!-|44444--!----!---:|
|:22222-02-22-2-3-|22222-02-22-333-|22222-02-22-2-3-|22222-02-22-333-:|
|:22222-02-22-2-3-|22222-02-22-333-|22222-02-22-2-3-|22222-02-22-333-:|
|:------02-22-2-3-|------02-22-333-|------02-22-2-3-|------02-22-333-:|
|1Deaf...         |born...         |what...         |strong...   like:|
|2me          like|me          like|me          like|me              :|
|3If you...       |soul...         |trust...        |judge...        :|
|4You...          |faith...        |just...         |tell            :|
|5Deaf...         |born...         |what...         |strong...       :|
|6Deaf...         |born...         |let...          |hand...         :|


  D5               D5               D5... Sustain second time trough X2
|:1 + 2 + 3 + 4 + |1 + 2 + 3 + 4 + |1 + 2 + 3 + 4 + |1 + 2 + 3 + 4 + :|
|:----------------|----------------|----------------|----------------:|
|:----------------|----------------|----------------|----------------:|
|:----------------|----------------|----------------|------1/2-------:|
|:77-77-----------|77-77-----------|77-77-----------|77-77_/---------:|
|:77-77-----------|77-77-----------|77-77-----------|77-77_/---------:|
|:55-55-----------|55-55-----------|55-55-----------|55-55_/---------:|
|:----------------|----------------|----------------|----------------:|
|1          My... |          beco..|          When..|        he sp...:|
|2          He... |          Like..|          We b..|           to...:|


  D5     D+b5      D5     D+b5      D5     D+b5      D5     D+b5
 |1 + 2 + 3 + 4 + |1 + 2 + 3 + 4 + |1 + 2 + 3 + 4 + |1 + 2 + 3 + 4 + |
 |-------!----!---|-------!----!---|-------!----!---|-------!----!---|
 |-------9-99-9999|-------9-99-9999|-------9-99-9999|-------9-99-9999|
 |!------7-77-7-77|!------7-77-7777|!------7-77-7777|!------7-77-7777|
 |77-77-77-77-7777|77-77-77-77-7777|77-77-77-77-7777|77-77-77-77-7777|
 |55-55-5---------|55-55-5---------|55-55-5---------|55-55-5---------|
 |----------------|----------------|----------------|----------------|


  B5    DE5     F5 B5    DE5   F5   B5    DE5     F5 B5    DE5   F5  X2
|:1 + 2 + 3 + 4 + |1 + 2 + 3 + 4 + |1 + 2 + 3 + 4 + |1 + 2 + 3 + 4 + :|
|:----------------|----------------|----------------|----------------:|
|:!---------------|!---------------|!---------------|!---------------:|
|:44444--!----!-!-|44444--!----!---|44444--!----!-!-|44444--!----!---:|
|:22222-02-22-2-3-|22222-02-22-333-|22222-02-22-2-3-|22222-02-22-333-:|
|:22222-02-22-2-3-|22222-02-22-333-|22222-02-22-2-3-|22222-02-22-333-:|
|:------02-22-2-3-|------02-22-333-|------02-22-2-3-|------02-22-333-:|
|1Jesus...        |Save...         |Open...         |With...         :|
|2Jesus...        |Save...         |Open...         |With...         :|


  B5                           Bass arranbged for guitar               X2
 |1 + 2 + 3 + 4 + |1 + 2 + 3 + 4 + ||:1 + 2 + 3 + 4 + |1 + 2 + 3 + 4 + :|
 |----------------|----------------||:----------------|----------------:|
 |----------------|----------------||:----------------|----------------:|
 |----------------|----------------||:----------------|----------------:|
 |4===============|===========<5>--||:-----------<5>--|-----------<5>--:|
 |4===============|===========--<5>||:--1/4--------<5>|--1/4--------<5>:|
 |2===============|===========-----||:2_/--^0======---|2_/--^0======---:|
 |----------------|----------------||:----------------|----------------:|


Guitar 1                                                             G.P.
  B5...                                                              X2
|:1 + 2 + 3 + 4 + |1 + 2 + 3 + 4 + |1 + 2 + 3 + 4 + |1 + 2 + 3 + 4 + :|
|:----------------|----------------|----------------|----------------:|
|:----------------|----------------|----------------|----------------:|
|:----------------|----------------|----------------|----------------:|
|:44444-----------|44444-----------|44444-----------|44444-----------:|
|:44444-----------|44444-----------|44444-----------|44444-----------:|
|:22222-----------|22222-----------|22222-----------|22222-----------:|
|:----------------|----------------|----------------|----------------:|
|1If...           |soul...         |Trust...        |judge...        :|
|2You...          |faith...        |Just...         |tell...         :|



  B     DE      F  B     DE    F    B     DE      F  B     DE    F   x3
|:1 + 2 + 3 + 4 + |1 + 2 + 3 + 4 + |1 + 2 + 3 + 4 + |1 + 2 + 3 + 4 + :|
|:----------------|----------------|----------------|----------------:|
|:!---------------|!---------------|!---------------|!---------------:|
|:44444--!----!-!-|44444--!----!---|44444--!----!-!-|44444--!----!---:|
|:22222-02-22-2-3-|22222-02-22-333-|22222-02-22-2-3-|22222-02-22-333-:|
|:22222-02-22-2-3-|22222-02-22-333-|22222-02-22-2-3-|22222-02-22-333-:|
|:------02-22-2-3-|------02-22-333-|------02-22-2-3-|------02-22-333-:|
|1Jesus...        |save...         |Open...         |with...         :|
|2Jesus...        |save...         |Open...         |with...         :|
|3Deaf...         |born...         |Let...          |hand...         :|


  D                D                D...  Sustain second time trough X2
|:1 + 2 + 3 + 4 + |1 + 2 + 3 + 4 + |1 + 2 + 3 + 4 + |1 + 2 + 3 + 4 + :|
|:----------------|----------------|----------------|----------------:|
|:----------------|----------------|----------------|----------------:|
|:----------------|----------------|----------------|------1/2-------:|
|:77-77-----------|77-77-----------|77-77-----------|77-77_/---------:|
|:77-77-----------|77-77-----------|77-77-----------|77-77_/---------:|
|:55-55-----------|55-55-----------|55-55-----------|55-55_/---------:|
|:----------------|----------------|----------------|----------------:|
|1          My... |          beco..|          When..|        he sp...:|
|2          He... |          like..|          We b..|           to...:|


  D5     D+b5      D5     D+b5      D5     D+b5      D5     D+b5
 |1 + 2 + 3 + 4 + |1 + 2 + 3 + 4 + |1 + 2 + 3 + 4 + |1 + 2 + 3 + 4 + |
 |-------!----!---|-------!----!---|-------!----!---|-------!----!---|
 |-------9-99-9999|-------9-99-9999|-------9-99-9999|-------9-99-9999|
 |!------7-77-7-77|!------7-77-7777|!------7-77-7777|!------7-77-7777|
 |77-77-77-77-7777|77-77-77-77-7777|77-77-77-77-7777|77-77-77-77-7777|
 |55-55-5---------|55-55-5---------|55-55-5---------|55-55-5---------|
 |----------------|----------------|----------------|----------------|

  Let ring
 D
 |1 + 2 + 3 + 4 + |1 + 2 + 3 + 4 + |1 + 2 + 3 + 4 + |1 + 2 + 3 + 4 + |
 |----------------|----------------|----------------|----------------|
 |----------------|----------------|----------------|----------------|
 |----------------|----------------|----------------|----------------|
 |0===============|================|================|================|
 |0===============|================|================|================|
 |0===============|================|================|================|

Let ring
 D
 |1 + 2 + 3 + 4 + |1 + 2 + 3 + 4 + |1 + 2 + 3 + 4 + |1 + 2 + 3 + 4 + |
 |----------------|----------------|----------------|----------------|
 |----------------|----------------|----------------|----------------|
 |7===============|7===============|7===============|================|
 |7===============|7===============|7===============|================|
 |5===============|5===============|5===============|================|
 |----------------|----------------|----------------|----------------|


 D                                                                   X2
|:1 + 2 + 3 + 4 + |1 + 2 + 3 + 4 + |1 + 2 + 3 + 4 + |1 + 2 + 3 + 4 + :|
|:----------------|----------------|----------------|----------------:|
|:----------------|----------------|----------------|----------------:|
|:7=======7=======|7=======7=======|7=======7=======|7=======7=======:|
|:7=======7=======|7=======7=======|7=======7=======|7=======7=======:|
|:5=======5=======|5=======5=======|5=======5=======|5=======5=======:|
|:----------------|----------------|----------------|----------------:|


6/8 time in 2
 D5                         Rall.(2nd time)          X2
|:1 + + 2 + + |1 + + 2 + + |1 + + 2 + + |1 + + 2 + + :||
|:------------|------------|------------|------------:||
|:------!-----|------!-----|------!-----|------!-----:||
|:!-----7-7-7-|!-----7-7-7-|!-----7-7-7-|!-----7-7-7-:||
|:7-7-7-7-7-7-|7-7-7-7-7-7-|7-7-7-7-7-7-|7-7-7-7-7-7-:||
|:5-5-5-5-5-5-|5-5-5-5-5-5-|5-5-5-5-5-5-|5-5-5-5-5-5-:||
|:0-0-0-------|0-0-0-------|0-0-0-------|0-0-0-------:||


                                        Nathan Simmering
                                        simmerin@icaen.uiowa.edu

Oceń to opracowanie
Kontrybucje:
s314ryt
s314ryt

Dodaj własne wykonanie

Umiesz zagrać tą piosenkę? Nagraj swoje wykonanie i pokaż innym użytkownikom jak grasz!
anonim