0

Part Of Me Tool

Tab for Part Of Me

Transcribed by Richard Hawley (rhawley@lawson.its.utas.edu.au)



--------------------------------------------------------------------------------


Nifty song.  Don't know what the time sigs are but this is
one of those songs you really have to feel so time sigs are
irrelevant if you ask me.

Tune in drop-D fashion : DADGBE


Figure 1.

Studio chatter and feedback ..
----------------------|--------------------------------------
----------------------|--------------------------------------
----------------------|--------------------------------------
----------------------|----2---2-2---xxxx---5---5-5---xxxx---
----------------------|----2---2-2---xxxx---3---3-3---xxxx---
----------------------|----2---2-2---xxxx-------------xxxx---

-------------------------------------------------------------
-------------------------------------------------------------
-------------------------------------------------------------
---2---2-2---xxxx--5---5-4------0-0--------------------------
---2---2-2---xxxx--5---5-4------0-0--------------------------
---2---2-2---xxxx--5---5-4------0-0--------------------------

Repeat twice

Figure 2.1
------------------------------------
------------------------------------
------------------------------------
---6-5-0-3---0-6-5-0-3--3--3----0---
---6-5-0-3---0-6-5-0-3--3--3----0---
---6-5-0-3---0-6-5-0-3--3--3----0---

Repeat four times then

Figure 2.2
------------------------------------
------------------------------------
------------------------------------
---2--0--5--0--2--0--5--0-2-5-------
---2--0--3--0--2--0--3--0-2-3-------
---2--0-----0--2--0-----0-2---------


Bass follows pattern in 2.1 without guitar 2 times

I know you well, you are a part of me
I know you better than I know myself

Figure 3.
---------------------------------------
---------------------------------------
------------------------------1--------
---1-0---3-----1-0---3--1--0-----------
-------0-----0-----0--------------0----
---------------------------------------

Repeat 2 times then ..

Play Figure 2.1 lightly (ie. low-D string only)

I know you best, better than anyone
I know you better than I know myself

Play figure 3 twice

Figure 4

---------------------------------------------------
---------------------------------------------------
---------------------------------------------------
---6-5-0-3---0-6-5-0-3--3--3--3--3--3--------------
---6-5-0-3---0-6-5-0-3--3--3--3--3--3--------------
---6-5-0-3---0-6-5-0-3--3--3--3--3--3--------------
                     You are a part of me

Note that each word here should match up rythymically which each
F note (3-3-3).

Figure 5.

---------------------------------------------------
---------------------------------------------------
---------------------------------------------------
---0--0--0--0--0--- etc. --------------------------
---------------------------------------------------
---------------------------------------------------

There are variations on the rythym here which I have not bothered
to work out in detail but its all on the open D string.

You are just a part of me
You are just a part of me
You are just a part of me
You .. are .. just .. a .. PART OF ME-E-E-E-E-E

Start playing Figure 1 on the "me-e-e-e-e" part and the rest
of the song is just variations of the above figures.

The solo is played over figure 1 as well.

----------------------------------------------------------
----------------------------------------------------------
----------------------9-----11----------------------------
-----9----------9------------------9----------------------
----------------------------------------------------------
----------------------------------------------------------

----------------------------------------------------------
----------------------------------------------------------
----------9------------------------------9------------9---
----9-----------9------------------9-----------9----------
-----------------------7----------------------------------
----------------------------------------------------------

This could also be played using the same notes but on the
top B and E strings.  Make sure the notes ring out and overlap.

Rich

Oceń to opracowanie
Kontrybucje:
s314ryt
s314ryt

Dodaj własne wykonanie

Umiesz zagrać tą piosenkę? Nagraj swoje wykonanie i pokaż innym użytkownikom jak grasz!
anonim