0
0

Mistletoe and Wine Cliff Richards

intro riff


[E1-------------------------------------------------------]H2--2-----2-----3-----5------2-----2---------------------
G3--2-----1-----2-----4------2-----1---------------------
D4--2-----2-----4-----2------2-----2---------------------
A5--0-----0-----5-----2------0-----0-----2-2-2-2-2-2--2--
E6--------------------0------------------0-0-0-0-0-0--0--


intro bas


E1-------------------------------------------------------
H2-------------------------------------------------------
G3-------------------------------------------------------
D4-------------------------------------------------------
[A5-------------------------------------------------------]E6--5-----4-----2-----0------5-----4-----0-0-0-0-0-0--0--


intro solo


[E1-------------------------------------------------------]H2--14--17--17B~~r17--14-15-14---------------------------
G3----------------------------16-16B-r16-H14---14~~\-----
D4------------------------------------------H16----------
A5-------------------------------------------------------
E6-------------------------------------------------------


E1-10H12-10-9H10-9-7H9-7--7-------------------------------
H2----------------------10-10-9H10-9-7H9-7--7-------------
G3-----------------------------------------9-9-7H9-7-6H7-6
D4--------------------------------------------------------
A5--------------------------------------------------------
E6--------------------------------------------------------


E1---------------------------------9H12p9-----------------
H2------------------------------10-------10---------------
G3----------------------------9-------------9-------------
D4--9-7-6------------------11-----------------11----------
A5--------9--7~~\------9H12---------------------12-9-\(7)~~
E6-------------------------------------------------------


E1--9--H12--T17--( 9-H12-T17 )(x12)--12/(16)~~~~---------
H2-------------------------------------------------------
G3-------------------------------------------------------
D4-------------------------------------------------------
A5-------------------------------------------------------
E6-------------------------------------------------------


zwrotka riff


[E1-------------------------------------------------------]H2--------2--------------------------------9-------------
G3------2--------2------------2----------9---9-----------
D4----2--------2---4--2-----2----------9-------9---------
A5--0--------0------------0-----4~~--7-------------------
E6-------------------------------------------------------


[E1-------------------------------------------------------]H2--------7-------------2--------4-----------------------
G3------7---7---------2--------4---4---------9-----------
D4----7-------7-----2--------4-------4-----9---9--\------
A5--5-------------0--------2-------------7---------------
E6-------------------------------------------------------


zwrotka bas


E1--------------------------------------------
H2--------------------------------------------
G3--------------------------------------------
[D4--------------------------------------------]A5---------------------------4-----7-----7--6-
E6--5------7--5---------5---------------------


E1-------------------------------------------------------
H2-------------------------------------------------------
G3-------------------------------------------------------
[D4-------------------------------------------------------]A5--5---5-4-2-0---------2-2-2-2--------------------------
E6------------------------------4--2--0------------------


zwrotka melodia


[E1------------------------------------------------------------------]H2----------14------------------------------14-14~~-----------------
G3-14-14--16-------14-14--14--------14-14-16--------13-13-13--------
D4------------14~~---------16--14~~-------------------------16-14~~-
A5------------------------------------------------------------------
E6------------------------------------------------------------------


[E1--------------------------------------------------------------]H2---------15-14---14-14-14-------------------------------------
G3-------14-----16---------16-14~~-14-14-14-13---------13-------
D4--16-16-------------------------------------16--16-16--16-14~~
A5--------------------------------------------------------------
E6--------------------------------------------------------------



refren riff 1


E1-------------------------------------------------------
[H2-------------------------------------------------------]G3--2----2------------------------------------------2----
D4--2----2---------------2-----2----2---------------2----
A5--0----0----4--4-5--4--2-----2----2----2--2-4--2--0----
E6-----------------------0-----0----0--------------------


E1-------------------------------------------------------
H2-------------------------------------------------------
[G3-------------------------------------------------------]D4------------2--2-4--2--6~~---6~~--6~~------------------
A5--4~~--4~~-----------------------------5--5-7--5--4~~--
E6-------------------------------------------------------


refren bas


E1-------------------------------------------------------
H2-------------------------------------------------------
[G3-------------------------------------------------------]D4--------------------------------------6--9-------------
A5----4--7-------4--7-----4--4-5--4---7------7-----------
E6--5------5---5------5----------------------------------


E1-------------------------------------------------------
H2-------------------------------------------------------
[G3-------------------------------------------------------]D4----6--9-------6--9------------------------------------
A5--7------7---7------7---2--2-4--2---2-0----0-----------
E6-----------------------------------------4-------------


refren melodia 1


[E1-----------------------------------------------------------]H2--14~~-------14-14-14---------14~~14-15~~14----------------
G3------16-14~~---------16-14~~---------------16-16~~14-13~~-
D4-----------------------------------------------------------
A5-----------------------------------------------------------
E6-----------------------------------------------------------


[E1--------------------------------------------------------------]H2----------------------------------------14--------------------
G3--16-16~~14-14~~13~~16-16~~14-13~~16~~16---16--16-14--(13-14)-
D4------------------------------------------------------16-14~~-
A5--------------------------------------------------------------
E6--------------------------------------------------------------

powt. 2 wersy

* cyfry w nawiasach - w powtórzeniu


refren melodia 2


E1------------------------------------14~~------------------
H2--17~~15-14~~17-17-17--15-14~~17~~17----17--15-15~~14-----
G3-----------------------------------------------------16~~-
D4----------------------------------------------------------
A5----------------------------------------------------------
E6----------------------------------------------------------


[E1------------------------------------------------------------]H2--15-15~~14-14~~---15-15~~14----15~~15-17~~15--15-14---(14)-
G3---------------16~~---------16~~---------------------16-14~~
D4------------------------------------------------------------
A5------------------------------------------------------------
E6------------------------------------------------------------

powt. 2 wersy

* cyfry w nawiasach - w powtórzeniu


zakończenie

bas

E1-------------------------------------------------------
H2-------------------------------------------------------
[G3-------------------------------------------------------]D4-----------4-------------------------------------------
A5-----4--7-----7--4------------4--7---9--7--------------
E6--5------------------LUB---5---------------9-----------


melodia 1

[E1-------------------------------------------------------]H2--10--7----7-------------------------------------------
G3--------9-----9--6---9--6------------------------------
D4--------------------------9---7--------7~~~~-----------
A5--------------------------------9--7-------------------
E6-------------------------------------------------------


melodia

E1-------------------------------------------------------
H2-------------------------------------------------------
[G3-------------------------------------------------------]D4--7--4-----4-------------------------------------------
A5-------7-----7--4---7--4-----0-------------------------
E6-------------------------7-----2--0---5~~~~~-----------


Oceń to opracowanie
Kontrybucje:
Winnetou
Winnetou
anonim