Popraw Opracowanie Usuń
Transponuj
0

Wehikuł Czasu(oryginalne chwyty+intro) Dżem

Chwyty na gitarę
  • Chwyty na gitarę Malinowa...
    6 ulubionych
E -------------------------------------------------------------------------
A--------------------------------------------------------------------------
D --------------------------------------------------2--2--4--2----------
G-2--2-------2---------------------------------0----0--0--0--0--4--2---
B-0--0--3/4-----0-----2--2---------------0-------------------------------
E---------------------0--0--3/4--0--2-----------------------------------

E-----------------------------------------------------------------------
A------------------------------------------------------------------------
D-------------------------------------4--2---------------------------
G-2--2-------2------------------------0--0--4--2---------------------
B-0--0--3/4-----0--2--2---------------------0--0----------------------
E------------------0--0--3/4--0-------------------------------------

/- oznacza slide po strunach

Pamiętam dobrze ideał swój.  A E fis D
Marzeniami żyłem jak król.   A E D A
Siódma rano - to dla mnie noc,
Pracować nie chciałem, włóczyłem się.

Za to do puszki zamykano mnie.
Za to zwykle zamykano mnie.
Po knajpach grywałem za piwko i chleb,
Na życiu bluesa tak mijał mi dzień.

Ref.
Tylko nocą do klubu "Puls"  E fis D A
Jam session do rana, tam królował blues
To już minęło, ten klimat, ten luz.
Wspaniali ludzie nie powrócą, E fis D
Nie powrócą już!  D

Lecz we mnie zostało coś z tamtych lat,
Mój mały, intymny, muzyczny świat.
Gdy tak wspominam ten miniony czas,
Wiem jedno, że to nie poszło w las.

Dużo bym dał, by przeżyć to znów -
Wehikuł czasu - to byłby cud!
Mam jeszcze wiarę, odmieni się los,
Znów kwiatek do lufy wetknie im ktoś

Ref.
Tylko nocą do klubu "Puls"
Jam session do rana, tam królował blues
To już minęło, te czasy, ten luz.
Wspaniali ludzie nie powrócą,
Nie powrócą już! Nie!


A,E,F#m,D
Oceń to opracowanie
Ocena czytelników: Doskonały 7 głosów

7 493 wyświetlenia
Autor opracowania
Malinowa...

Współpraca

W nowym śpiewniku możesz poprawiać istniejące opracowania i zdobywać punkty Karmy. Zapoznaj się z zasadami kontrybucji.
anonim
Znaleziono 1 komentarz.