0
0

How Would You Feel (Paean) Ed Sheeran

Tekst piosenki i chwyty na gitarę

  • Chwyty na gitarę Początkujący
    2 ulubione
Riff 1
E|------G-------------b7 --------------C9--------------------------|
B|--------0h3p0----------------------------------------------|
G|---------------------0h2--0--------0-------0--0--0h2p0-----|
D|-----0------------0-------------2-----0h2---------------0--|
A|---------------2-------------3-----------------------------|
E|--3--------------------------------------------------------|

Riff 2
E|----G-------------b7 ------------|   C9  
B|--------0h3p0----------------|
G|---------------------0h2--0--|
D|-----0------------0----------|
A|---------------2-------------|
E|--3--------------------------|

G2xb7     C9  

G  You are the b7 one, girl  C9  

You know that it's true
G I'm feeling yb7 ounger  C9  

Every time that I'm alone with you


b7 We were sitting in a parked care   
Stealing kisses in a front yardA7  
We got questions we should not askeDd


But how would you feGelb7     C9  
If I told you I loved yoGb7      C9  
It's just something that I want to dGb7     C9  
I'll be taking my tia me, spending my liDfe
Falling deeper in love with yoGb7     C9  
So tell me that you love me toGb7     C9  


G In the sb7 ummer C9  

As the lilacs bloom
G Love flows deb7 eper than a river C9  

Every moment that I spend with you

b7 We were sat upon our best friend's roofe   
I had both of my arms round yoA7
Watching the sunrise replace the moDon


How would you feGelb7     C9  
If I told you I loved yoGb7     C9  
It's just something that I want to dGb7     C9  
I'll be taking my tia me, spending my liDfe
Falling deeper in love with yoGb7     C9  
So tell me that you love me toGb7     C9  

G4xb7     C9  

E|-----------------------------------------------------|
B|-----------------------------------------------------|
G|----------14------14--16b18--16--------18r16p14------|
D|--14--16------16---------------------------------16--|
A|-----------------------------------------------------|
E|-----------------------------------------------------|

E|---------------------------------------------------------|
B|--------------------------------------17-----------------|
G|----------14------14--------16b18r16------18r16p14---14--|
D|--14--16------16-----------------------------------------|
A|---------------------------------------------------------|
E|---------------------------------------------------------|

E|---------------------------------------------7--------------|
B|--------------------------------------17h19-----17h19---17--|
G|----------14------14--------16b18r16------------------------|
D|--14--16------16--------------------------------------------|
A|------------------------------------------------------------|
E|------------------------------------------------------------|

E|---------------------------------------------------------------|
B|---------------------------------------------------------------|
G|----------14------14--------16b18r16-----16h18r16--14--16--14--|
D|--14--16------16-----------------------------------------------|
A|---------------------------------------------------------------|
E|---------------------------------------------------------------|

E|----------------------------------------------|
B|----------------------------------------------|
G|--14p11---------------------------------------|
D|---------11\9/11------------------------------|
A|----------------------------------------------|
E|----------------------------------------------|

b7 We were sitting in a parked care   
Stealing kisses in a front yardA7  
We got questions we shouldn't had aDsked

But how would you feGelb7     C9  
If I told you I loved yoGb7     C9  
It's just something that I want to dGb7     C9  
I'm taking my ta ime, spending my lDife
Falling deeper in love with yoGb7     C9  
So tell me that you love me toGb7     C9  
Tell me that you love me toGb7     C9  
Tell me that you love me toGb7     C9  

Oceń to opracowanie
Ocena czytelników: Dobry 1 głos
Kontrybucje:
floem
floem
anonim