0
0

30 raz Happysad

Tekst piosenki i chwyty na gitarę

  • Chwyty na gitarę aletoniewszystko
    123 ulubione
Odchodzisz jeuż tArzydziesty hraz
Trzydziesty reaz zAabierasz phsa
W kuchni nie peachnie już sAmażonym hjajkiem   G 
Chyba Dnaprawdę emało cię zFisnam

Na szafce teu obAok przy dhrzwiach
Niedokońcezona pAaczka fhajek
Nasze eradioA wciąż hgra  G 
A ty Dodchodzisz etrzydziesty Fisraz

Ale Gnie jest Dźle przecież ewiem że i tak kochaFissz mnie
GWszak i Dja ekocham ciebie i Fistak

Odchodziesz jAuż trzydziehsty raz
TrzydzieestyA raz zostahję sam
Ale niee krzyczysz nie płacAzesz nieh trzaskaszG drzwiami
NawetD nie przeewracasz ocFiszami

Ale Gnie jest Dźle przecież ewiem że i tak kochaFissz mnie
GWszak i Dja ekocham ciebie i Fistak
Nie ezapłacony Aprąd i hgaz
Wyczeerpany zapAas miodhu
Kto teemu winienA wszystkiemu hno kto jak niGe ja... D    e  Fis   
DAle proszę cię ewróć do Fismnie   G 
DAle proszę cię ewróć do Fismnie   G 
DAle proszę cię ewróć do Fismnie trGzydziesty raz.D..e  Fis    h 


e|--------------------s15-14-12-10-1010-9-99-10-------
b|-7-5------------------------------------------------
g|--7-4-44-6-66-7-77----------------------------------
d|----------------------------------------------------
a|----------------------------------------------------
e|----------------------------------------------------


mini solo
e|-----7-77-5-7-5------7-77-9-7-5---------------------
b|--7-5----------7--7-5----------7-7-7-7-5/3----------
g|---7---------------7-----------------------6-4/6h7--
d|----------------------------------------------------
a|----------------------------------------------------
e|----------------------------------------------------

e|----------------------------------------------------
b|-------5/7-7--5-5-----------------------------------
g|-7-7-7------7-----7-6~~~---------------------------
d|----------------------------------------------------
a|----------------------------------------------------
e|----------------------------------------------------
------------------------------

|---------------------------------------------10-9-7-5-7/9--9-----------------------
|--3---3-5-7--7-7-7-5--5-3-2-3-3/8-8-7-8-7---------------------7-7--7-5-2-3-3/8-8---
|-----------------------------------------------------------------------------------
|-----------------------------------------------------------------------------------
|-----------------------------------------------------------------------------------
|-----------------------------------------------------------------------------------



|----------------------------------------------10-9-7-5-7/9--9----9----10-9---------------------
|--3---3-5-7--7-7-7-5--5-3-2-3-3/8-8-7-8-7---------------------7----7---------7-5-3-2-3-5-3--2--
|-----------------------------------------------------------------------------------------------
|-----------------------------------------------------------------------------------------------
|-----------------------------------------------------------------------------------------------
|-----------------------------------------------------------------------------------------------

i jeszcze na samym końcu
|----------------------------------
|---2-3-5-7----------------------
|----------------------------------
|----------------------------------
|----------------------------------
|----------------------------------



Oceń to opracowanie
Ocena czytelników: Dobry 26 głosów
anonim
  • Kacper
    Pomidor
    Takie małe pytanie. Na wstępie szarpiemy puste struny b, g i jaka 3?

    Bicie w metrum na 3/4.
    Ogólne to dół dół,góra,dół,góra zaczynamy na "już". "Odchodzisz już..."
    Na "e" i "A" jeden schemat, na "h" dwa schematy i tak przez 3 wersy.
    Na "G" jeden schemat, na "D" i "e" po jednym uderzeniu w dół, i przejście na "Fis" jest kilka uderzeń w dół (trzeba wyczuć), a następnie dół,góra,dół,góra,dół,góra,dół,góra i zaczynamy 2 zwrotkę.
    Z resztą chyba dacie sobie radę ;)
    · Zgłoś · 8 lat temu
  • Eli
    superaśna piosenka :D
    · Zgłoś · 10 lat temu
  • Papik
    maua kuknij sobie na stronę happysad'u :) Jest "Wyczerpany zapas miodu". Pozdrawiam :)
    · Zgłoś · 10 lat temu
  • maua
    Nie "Wyczerpany zapas wody (miodu) " tylko "niewyczerpany zapas głodu"
    · Zgłoś · 10 lat temu
  • Jack37
    kur... cos mi nie wychodzi... może podasz bicie? bo ja chyba źle bije ;//
    · Zgłoś · 11 lat temu
  • kornela
    to jest na prawdę świetne, i jak super na gitarze wychodzi ...
    · Zgłoś · 11 lat temu