Wakacyjny Konkurs Śpiewnikowy
Wakacyjny Konkurs Śpiewnikowy
Popraw Opracowanie
Transponuj
0

Taką wodą być HappySad

Tekst piosenki i chwyty na gitarę

  • Chwyty na gitarę Lu$ka
    33 ulubione
e-------------------------------------------------------------------------------------
H-------------------------------------------------------------------------------------
G-----2--0h2-1------------2-0h2-1------------3--------0---0h2--------2----------------
D---3----------5s3------0---------5s3------3---3--------2-----2----3----------5-------
A-3-------------------0------------------1----------3------------3----------6-----6---
E-------------------------------------------------------------------------5-----5-----


Taką wodą być,   F
Co otuli ciebie całą ogrzeje ciało,    d B
Zmyje resztki parszywego dnia,  C  F
I uspokoi każdy nerw, F
zabawnie pomarszczy dłonie    d
a kiedy zaśniesz wiernie będzie przy twym łóżku stać   B C F

I taką wodą być a nie tą co żałośnie całą noc tłucze się po oknie    D B C F

Wczoraj... Wczoraj... G A d

I taką wodą być F
co nawilży twoje wargi  d
Uwolni kąciki ust gdy przyłożysz je do szklanki B C F
I czarną kawę zmieni w płyn kiedy dni skute lodem F d
A kiedy z nieba poleje się żar poczęstuje chłodem B C F

I taką wodą być  d
A nie tą co żałośnie całą noc w gardle pali ogniem  B  C F
Wczoraj... Wczoraj... G A
Nie liczy się !!! d
Bo wczoraj... Bo wczoraj...  G A d
I taką wodą być  d
A nie tą co żałośnie całą noc w gardle pali ogniem  B C F
Wczoraj... Wczoraj... G A
Nie liczy się !!! d
Wczoraj... Wczoraj...  G A
Nie liczy się !!! d
Bo wczoraj... Bo wczoraj... G D
Nie było nie d

F,Dm,A#,C,D,G,A
Oceń to opracowanie
Ocena czytelników: Niczego sobie 9 głosów

Kontrybucje
Lu$ka

Wakacyjny Konkurs Śpiewnikowy

Pula nagród w konkursie ponad 10.000 zł!
Przysyłaj opracowania piosenek i zdobądź bony na zakupy w sklepie muzycznym.
Zapoznaj się z regulaminem konkursu.
anonim
Znaleziono 6 komentarzy.
  • Anonimowy użytkownik
    niemajutra 4 lata temu

    jak jest wczoraj wczoraj.... to g-moll pasuje bardziej :3

  • Noktovizor
    Noktovizor 4 lata temu

    mnie sie wydaje, ze wczoraj ma byc gmol, a mol, i d mol

  • Anonimowy użytkownik
    misiek 5 lat temu

    Też pozwolę sobie się nie zgodzić z "Wczoraj... Wczoraj..." gdyż moim zdaniem powinny być chwyty g a (oba molowe, a nie durowe).

  • Anonimowy użytkownik
    EsikFloresik 5 lat temu

    Jak jest wczoraj.. wczoraj to bardziej pasuje g A d
    a końcówka nie G D d tylko g A d :D
    moim zdaniem lepiej brzmi :)

  • tstpnwn
    tstpnwn 7 lat temu

    Pozwolę sobie nie zgodzić się z tą tabulaturą (chciałem dodać normalnie, ale wywrota mi fiksuje, więc wrzucam w komentarzu). Popracowałem trochę nad nią, zebrałem z kilku miejsc, sprawdziłem co mi najlepiej brzmi i oto co wyszło:
    Prócz "wczorajów", gdzie gra się G A d wszystko idzie tym riffem. Każdy takt można też zagrać alternatywnie chwytem, więc jest podpisany na co można to zamienić w którym miejscu.
    Niestety Wywrota w komentarzach ma myślnik krótszy niż cyfra, więc tabulatura się rozjeżdża, żeby była ładna trzeba ją skopiować do notatnika.

    e-----------------|-----------------|--------------|-----------|-------5---------|
    H-----------------|-----------------|-----3--------|-----------|---------6-------|
    G-----2-0h2-1-----|-----2-0h2-1-----|-----3--------|-0---0h2---|-----2-----5-7-0-|
    D-----3-------5s3-|-----3-------5s3-|---3---3------|---3-----2-|-----3-----------|
    A---3-------------|---0-------------|-1--------1/3-|-----------|---3-------------|
    E-1---------------|-0---------------|--------------|-----------|-1---------------|
    F1 d B C F2

    Taką wodą być, F1
    Co otuli ciebie całą d
    ogrzeje ciało, B
    Zmyje resztki C
    parszywego dnia, F2
    I uspokoi każdy nerw, F
    zabawnie pomarszczy dłonie d
    a kiedy zaśniesz B
    wiernie będzie C
    przy twym łóżku stać F2

    F1
    I taką wodą być d
    a nie tą co żałośnie całą noc B
    tłucze się po oknie C
    F2

    Wczoraj... Wczoraj... G A

    I taką wodą być F1
    co nawilży twoje wargi d
    Uwolni kąciki ust B
    gdy przyłożysz C
    je do szklanki F2
    I czarną kawę zmieni w płyn F1
    kiedy dni skute lodem d
    A kiedy z nieba B
    poleje się żar C
    poczęstuje chłodem F2

    F1
    I taką wodą być d
    A nie tą co żałośnie całą noc B
    w gardle pali ogniem C
    F2

    Wczoraj... Wczoraj... G A
    Nie liczy się !!! D
    Bo wczoraj... Bo wczoraj... G A

    F1
    I taką wodą być d
    A nie tą co żałośnie całą noc B
    w gardle pali ogniem C

    Wczoraj... Wczoraj... G A
    Nie liczy się !!! D
    Wczoraj... Wczoraj... G A
    Nie liczy się !!! D
    Bo wczoraj... Bo wczoraj... G D
    Nie było nie d

  • Ancyś
    Ancyś 8 lat temu

    kocham HappySad i tą piosenkę;***