0
0

Z pamiętnika młodej zielarki Happysad

Tekst piosenki i chwyty na gitarę

  • Chwyty na gitarę Średni
    39 ulubionych
Wstęp
E--------------------------
B--------------------------
G--------------------------
D--------------------------
[A--------------------------]E-----5--3--0--------------


Wstęp + Zwr.
E------------------------------------------------------1----------------------------
B-----1---1-0-----1---1-0---0---0------------------1------1-------------------------
G---2---2-------2---2------0---0---------------2---------------2--------------------
[D-----------------------------------------------------------------------------------]A---0-----------0-------------------------------------------------------------------
E--------------------------0-----------------1--------------------------------------

Zwrotka
a e F

Próbuję otworzyć oczy,
Huk rozlepianych powiek wiruje mi w głowie
Powietrze
Jakieś takie cięższe,

Chłepcę je chłepcę
Powoli na zewnątrz i do środka
Chyba już pójdę
Tyłek przymarzł mi do schodka

Pierwsza myśl:
O Matko Boska
Druga myśl:
O ja idiotka!

Ref.
I znowu zaamieszanie na chacie
I znowu zearzygane żółcią szmaty
Znowu tęFpa próba żyletki
Znowu wapierdol od taty e (x2)


Zwrotka
a e F

Już czwarta rano,
Jak ten czas dziwnie leci
Jeszcze się Ziemia trochę przekręci
I znowu zaświeci słońce

O jak mi niedobrze
Jeszcze w głowie słyszę głosy,
Rozczochrane myśli,
Odklejone paznokcie, połamane włosy

Chyba już pójdę,
A wcale mi się nie chce
Burdel w mej głowie
Jak w damskiej torebce

Ref.
I znowu zaamieszanie na chacie
I znowu zearzygane żółcią szmaty
Znowu tęFpa próba żyletki
Znowu wapierdol od taty e (x2)
Ajajajaj

Solo
E--8--7-5----------5-----------------------12--10--7--8--8--7-5----------5----------
B---------8--6-8-6---6-5----------------------------------------8--6-8-6---6-5------
G-----------------------------7-5-4--5-7--------------------------------------------
D-----------------------------------------------------------------------------------
A-----------------------------------------------------------------------------------
E-----------------------------------------------------------------------------------

Podczas solo druga gitara gra
a e F

I znowu zaamieszanie na chacie
I znowu zearzygane żółcią szmaty
Znowu tęFpa próba żyletki
Znowu wapierdol od taty e (x2)
Ajajajajjj

Oceń to opracowanie
Ocena czytelników: Dobry 11 głosów
Kontrybucje:
Jakub Maciejewski
Jakub Maciejewski
anonim