My apocalypse Metallica

Tekst piosenki

  • Tekst piosenki Guitar
Gtr I (E A D G B E) - 'Kirk'
Q=192
4/4
Gtr I
Q Q E E +E E +Q Q E E +E E
|-12-----12-----12----12-----(12)---------|-----------------------------------------|
|-15b17--15b17--15b17-15b17==(15)r-11-----|-(11)---11-----11----11-----(11)--12-----|
|----------------------------------13b15==|=(13)r--13b15--13b15-13b15==(13)r-14b16==|
|-----------------------------------------|-----------------------------------------|
|-----------------------------------------|-----------------------------------------|
|-----------------------------------------|-----------------------------------------|

5.5/
+Q Q E +E +E E H.. E
|------------------------------------|-----------------0-|
|-(12)---12-----12-----(12)-(12)\----|-------------------|
|-(14)r--14b16--14b16==(14)-(14)r\---|-------------------|
|------------------------------------|-------------------|
|------------------------------------|-------------------|
|----------------------------------7s|=12----------------|

S S S S S S S S S S S S S S S S S S S S S S S S S S S S S S S S
|-2-0-0-0-3-0-0-0-5-0-0-0-3-0-0-0-|-5-3-0-0-7-5-0-0-8-7-0-0-6-5-0-0-|
|---------------------------------|---------------------------------|
|---------------------------------|---------------------------------|
|---------------------------------|---------------------------------|
|---------------------------------|---------------------------------|
|---------------------------------|---------------------------------|

S S S S S S E S S S S S S E S S S S S S E E E Q
|-10-8-7-7--------12-10-8-8---------|-13-12-10-10----------15--------|
|----------10-8-7-----------12-10-8-|-------------14-12-11----12\----|
|-----------------------------------|--------------------------------|
|-----------------------------------|--------------------------------|
|-----------------------------------|--------------------------------|
|-----------------------------------|--------------------------------|

~~~~~~~~~~~~~
|--3--|
Q. E +Q S +S E Q. E +Q E E E
|---------------------------------------|-------------------------|
|-15------15-----(15)---15----(15)-(15)-|-14----14-(14)-----------|
|-14b16---14b16==(14)r--14b16r(14)p=12--|-14----14-(14)--14p12----|
|---------------------------------------|----------------------14-|
|---------------------------------------|-------------------------|
|---------------------------------------|-------------------------|

~~~~~~~~~~~~~
|--3--|
Q. E +Q E E E Q. E +H
|-------------------------|-------------------|
|-12----------------------|-------------------|
|-12----------------------|-12----------------|
|-------14-(14)--14p12----|-12----------------|
|----------------------14-|-------14-(14)\----|
|-------------------------|-------------------|

S S S S S S S S S S S S S S S S S S S S S S S S S S S S S S S S
|---------------------------------|---------------------------------|
|---------------------------------|---------------------------------|
|-2-0-0-0-4-0-0-0-5-0-0-0-4-0-0-0-|-5-0-0-0-7-0-0-0-9-0-0-0-7-0-0-0-|
|---------------------------------|---------------------------------|
|---------------------------------|---------------------------------|
|---------------------------------|---------------------------------|

|--3--|
E S S a E. S S S S S E E E
|------------------------------------------|
|------------------14-15-17-15p14-15p14----|
|-----12-12-14s16-----------------------16-|
|-/14--------------------------------------|
|------------------------------------------|
|------------------------------------------|

2/4
|--3--| |--3--|
E E E S S E Q Q Q Q Q
|----------------------------|---------|
|-14-------------------------|---------|
|----16p14-16p14s12----11----|-10------|
|-------------------14----12-|-----11--|
|----------------------------|---------|
|----------------------------|---------|

4/4
Q Q Q Q +W +H H
|--------------|------------|--------------|
|--------------|------------|--------------|
|-9------8-----|------------|--------------|
|----10-----9--|-(9)--------|-(9)\---------|
|--------------|------------|--------------|
|--------------|------------|--------------|





Claustrophobic
Crawl out of this skin
Hard explosive
Reach in, pull that pin
Fear thy name extermination
Desacrate inhale the fire
So we cross that line
Into the grips
Total eclipse
Suffer unto my apocalypse!
Deadly vision
Prophecy revealed
Death Magnetic
Pulling closer still
Fear thy name annihilation
Desolate inhale the fire
So we cross that line
Into the grips
Total eclipse
Suffer unto my apocalypse!
My apocalypse? Go!
Crushing metal, Ripping Skin
Tossing body mannequin
Spilling Blood, Bleeding Gas
Mangle flesh, Snapping spine
Dripping bloody valentine
Shatter face, spitting glass
Split apart
Split apart
Split apart
Spit
[ From: http://www.metrolyrics.com/my-apocalypse-lyrics-metallica.html ]
Spit it out!
What makes me drift a litter bit closer
Dead man takes the steering wheel
What makes me know it?s time to cross over
Words you repeat until I feel
See through the skin the bones they all rattle
Future and past they disagree
Flesh falls away the bones they all shatter
I start to see the end in me
See the end in me?
See the end in me?
Claustrophobic
Climb out of this skin
Hard explosive
Reach in, pull that pin
Violate, annihilate
All wounds unto my eyes
Obliterate, exterminate
And life itself, denied
Fear thy name as hell awakens
Destiny, Inhale the Fire
But we've cross that line
Into the grips
Total eclipse
Suffer unto my apocalypse!
Tyrants awaken my apocalypse!
Demon awaken my apocalypse!
Heaven awaken my apocalypse!
Suffer forever my apocalypse!


Oceń to opracowanie
Kontrybucje:
Guitar
Guitar
anonim