Wakacyjny Konkurs Śpiewnikowy
Wakacyjny Konkurs Śpiewnikowy
Popraw Opracowanie
Transponuj
0

Niepokonani Perfect

Tekst piosenki i chwyty na gitarę

  • Chwyty na gitarę Redakcja
    36 ulubionych
Wstęp									flażolet
--10--10--9-----------------------sl--sl-----------------------------------
--7---7---7---12--12--10--9--9--7-\-9-\-10--9---7--------------------------
--7---7---7---9---9---7---6--6--4-\-6-\-7---6------4-----------------------
--9---9---9---9---9---7---6--6--4-\-6-\-7---6---------<7>------------------
---------------------------------------------------------------------------
---------------------------------------------------------------------------


-----10--9--------------------10---10---10---9---sl--------2---------------
-----7---7---12--12--10----9-----8----9----7---7-\-5--3----2---------------
-----7---7---9---9---7-------------------------------------3---------------
-----9---9---9---9---7-------------------------------------4---------------
-----------------------------------------------------------4---------------
-----------------------------------------------------------2---------------

Zwrotka 1
 h 		h/A	   G					Fis
---------------------------3------------5----------------------------------
------3--------3-----------3---3--3-----5--3--------2----------------------
------4--------4-------4---4---4--4--------4--------3----------------------
----4---4----4---4---------5---5--5--------5------4---4--------------------
--2--------0---------------5---5--5--------5-------------------------------
--------------------3------3---3--3--3-----3---2---------------------------

Przejście
--10--10---9---------------------------------------------------------------
--7---7----7---12--12--10--------------------------------------------------
--7---7----7---9---9---7---------------------------------------------------
--9---9----9---9---9---7---------------------------------------------------
---------------------------------------------------------------------------
---------------------------------------------------------------------------

Zwrotka 2
   h			  h/A      G				    Fis
-------------7-----------7------------3------------5-----------------------
-----------7---7-------7---7----------3---3--3-----5--3--------2-----------
----------------------------------4---4---4--4--------4--------3-----------
--------------------------------------5---5--5--------5------4---4---------
----sl-------------0------------------5---5--5--------5--------------------
--5-\-7------------------------3------3---3--3--3-----3---2----------------

Refren
-------------------2----------2-----------0--------------3-------2---------
-------------------3----------3-----------0------3---2---3----0--0---------
-----4-----------2---2------4---4-------0---0----2---2---0----0--0---------
---4------h----0---------------------2-----------2---2---0--x--------------
-2------2--4-------------2-----------------------0---0---2--x--------------
---------------------------------------------------------3-----------------
						 sl	sl
---0---0--0--0-----3---5---3-------9-\-10-\-9------------------------------
---0---0--0--0-----3---5---3---------sl---sl-------------------------------
---0---0--0--0-----4---6---4-------6-\-7--\-6------------------------------
---2---2--2--2-----5---7---5-----------------------------------------------
---2---2--2--2-----5---7---5-----------------------------------------------
---0---0--0--0-----3---5---3-----------------------------------------------


------------------------------0----------0-------------------3---------2---
-----3---------3-----------12---12----12---12---------3------3-------2---2-
-----4---------4-------------------12---------12--------4----4-----3------3
---4---4-----4---4------12--------------------------5-----5--5---4---------
-2---------0---------10--------------------------------------5-------------
--------------------------------------------------3----------3--2----------

Przejście
-10--10--9--------------------10---10---10---9---sl--------2---------------
-7---7---7---12--12--10----9-----8----9----7---7-\-5--3----2---------------
-7---7---7---9---9---7-------------------------------------3---------------
-9---9---9---9---9---7-------------------------------------4---------------
-----------------------------------------------------------4---------------
-----------------------------------------------------------2---------------


Gdy emocje już opadną
Jak po wielkiej bitwie kurz
Gdy nie można mocą żadną
Wykrzyczanych cofnąć słów
		Czy w milczeniu białych haniebnych flag
		Zejść z barykady
		Czy podobnym być do skały, posypując     solą ból
		Jak posąg pychy samotnie stać

Gdy ktoś kto mi jest światełkiem
Gaśnie nagle w biały dzień
Gdy na drodze za zakrętem
Przeznaczenie spotka mnie
		Czy w bezsilnej złości łykając żal
		Dać się powalić
		Czy się każdą chwilą bawić, aż do końca wierząc że
		Los inny mi pisany jest

Płyniemy przez wielki Babilon
Dopóki miłość nie złowi nas

		W korowodzie zmysłów możemy trwać
		Niepokonani
		Nim się ogień w nas wypali
		Nim ocean naszych snów
		Łyżeczką się odmierzy świat

		Trzeba wiedzieć kiedy ze sceny zejść
		Niepokonanym
		Wśród tandety lśniąc jak diament
		Być zagadką której nikt
		Nie zdąży zgadnąć nim minie czas



___________________
Grzegorz Prejs
prejs@friko2.onet.pl

Bm,A,G,F#
Oceń to opracowanie
Ocena czytelników: Niczego sobie 9 głosów

Kontrybucje
Redakcja
  • Teledysk

Wakacyjny Konkurs Śpiewnikowy

Pula nagród w konkursie ponad 10.000 zł!
Przysyłaj opracowania piosenek i zdobądź bony na zakupy w sklepie muzycznym.
Zapoznaj się z regulaminem konkursu.
anonim
Wszystkie komentarze
Znaleziono 39 komentarzy.
  • Anonimowy użytkownik
    Miłosz 4 lata temu

    Super piosenka
    Nie wiem jak tabulatura, ale sądzę że dobra

  • Paulina Siwa
    Paulina Siwa 10 lat temu

    macie tam chwyty. Przyjżyjcie sie temu... sa tam jak nic. :P

  • Carol
    Carol 10 lat temu

    Przydałyby się ormalnie dopracowane chwyty do tego...

  • Eileen
    Eileen 10 lat temu

    POGROMCO OGNISKOWYCH MUZYKÓW... sora, ale jesteś beznadziejny... Jedni grają akordami inni tabami. Ich sprawa komu co sprawia przyjemność, nie?? A gra na gitarze właśnie po to jest... żeby mieć z tego radochę... Ogniskowi muzycy... może lubią grać przy ogniskach i co?? A ty co?? Samą tabulaturą grasz i myślisz, że jesteś najlepszy?? ŚMIECH NA SALI, STARY!!! Trochę szacunku dla innych! Mamy te same zainteresowania, przestań być jakimś nadętym bubkiem i nie wywyższaj się ponad innych, chyba, że pomaga ci to pogodzić się z własnymi kompleksami... ale to już powinna być twoja prywatna sprawa...

    A skoro są zaznaczone akordy, nie tylko taby, to uważam, że powinny też być... (choćby dla tych, którzy nie umieją jeszcze grać tabami lub uczą się, albo grają PRZY OGNISKACH "przyjacielu"), a chcieliby to umieć grać akordami...
    No... namieszałam...
    Jednym słowem... zaznaczacie akordy, to je zamieszczajcie przy tekście utworu...

  • Maciej
    Maciej 11 lat temu

    Tak, w internecie jest na ten temat sporo ,wpisz w google , a napewno cos znjadziesz ..Nie będe sie rozwodził ,jak tobie to wyjasnic ..Bez urazy ..:)
    Poprostu odp.. na twoje pytanie ;)

    Sl - to jest slide *

  • mieciu
    mieciu 11 lat temu

    maciej czy to jest odpowiedz na moje pytanie ?

  • Maciej
    Maciej 11 lat temu

    Sl - jest to slave :D

  • mieciu
    mieciu 11 lat temu

    moglby mi ktos powiedziec co oznacza to "s" przy nazwach progow na tabulaturze

  • Maciej
    Maciej 11 lat temu

    Według mnie wstęp nie pasuje jest za wysoki, wszędzie w necie tabulatury sa takie same .., identyczne! ktos ma moze pomysłna wstęp,bo ja nie jarze wstepu?? ktos mnie olśni?

  • gitusiak
    gitusiak 11 lat temu

    Taby, chwyty, nutki co za różnica ? Może by tak czasami posiedzieć, posłuchać i spróbować samemu cóś "na ucho" zrobić? :) Poza tym tabik zrobiony bardzo przyzwoicie, i akordy też są . Czego wy jeszcze oczekujecie. Może za was zagrać ;) Pozdrawiam.

Wszystkie komentarze