0
0

Baśka Wilki

  • Chwyty na gitarę Początkujący
    453 ulubione
  • Chwyty na ukulele Michalina Buczyńska
    436 ulubionych
Tabulatura- Riff
E|-----------------------0-----------------------------------------
H|---3----3--3--1--0--0--1----1--0--1--3---5---5--5--8--10----8----
G|---0----0--0--0--0--0--2----0--0--0--0---0---0--0--0--0-----0----
D|---0-------------------------------------------------------------
A|-----------------------------------------------------------------
E|-----------------------------------------------------------------

E|-----------------------0-----------------------------------------
H|---3----3--3--1--0--0--1----1--0--1--3---5---8--10-12-13-12-10---
G|---0----0--0--0--0--0--2----0--0--0--0---0---0--0--0--0--0--0----
D|---0-------------------------------------------------------------
A|-----------------------------------------------------------------
E|-----------------------------------------------------------------

Zwrotka
GBaśka miała faajny biust
Ania sCtyl, a Zośka coś, co lGubię, ech
GEla całowała caudnie
Nawet Ctuż po swoim ślGubie
GZ Kaśką można było akonie kraść
CChociaż wiem, że chciała przeżyć
Ze mną Gswój pierwszy raz
GMagda – zło, Jolka mnie
Zagłaskaałaby na śmierć
A AgniCeszka zdradzała mnGie

Refren
CPiękne jak Gokręt
aPod pełnymi żaeglami
CJak konie w galGopie
aJak niebo nad neami a e

Zwotka-taki sam schemat
Karolina w Hollywood
Z Aśką nigdy nie było tak samo
Ewelina zimna jak lód,
Więc na noc umówiłem się z Alą
Wszystko mógłbym Izie dać
– tak jak Oli,
Ale one wcale nie chciały brać
Małgorzata – jeden grzech
Aż onieśmielała mnie
A Monika była okej

refren
Piękne jak okręt
Pod pełnymi żaglami
Jak konie w galopie
Jak niebo nad nami

Oceń to opracowanie
Ocena czytelników: Niczego sobie 149 głosów
anonim
  • BŁażej Kapla
    Piosenka bardzo łatwa w nauce
    Bicie:
    DÓŁ DÓŁ GÓRA GÓRA DÓŁ GÓRA DÓŁ
    · Zgłoś · 1 rok temu
  • BŁażej Kapla
    · Zgłoś · 1 rok temu
  • Marcin
    Mjetek
    No jest w cipę, a co myśle.. ja nie myśle
    · Zgłoś · 3 lata temu
  • Marcin
    Syla z 402
    Mega swietne w deche yeah
    · Zgłoś · 4 lata temu
  • Marcin
    Kroolik
    ja w zwrotce bije z tamburynem, czyli takie udezenie w pudło. i wygląda to tak ( X to tamburyn)
    DÓŁ X GÓRA X i tak na kazdym chwycie. wejście 2x i zwrotka 4x.
    Natomiast refren bez tamburynu.
    DÓŁ DÓŁ GÓRA GÓRA DÓŁ GÓRA
    POZDRAWIAM
    · Zgłoś · 7 lat temu
  • Angelika
    ej a jakie to te bicia basowe i wiolinowe? hmm;/
    · Zgłoś · 10 lat temu
  • Nati
    fajna ;]
    bicie : basowe dół góra wiolinowe dół góra
    · Zgłoś · 11 lat temu
  • Kindzia
    wg mnie jest trudne bicie w tej piosence . Jeszcze go nie znalazlam hyhy
    · Zgłoś · 11 lat temu
  • Anka
    Ja jestem początkującą...
    To coś dla mnie. xD
    Jakie jest bicie do tej piosenki ??
    Plis niech ktoś powie :)
    · Zgłoś · 11 lat temu
  • wiktoria popielas
    exstra ale czeba ćwiczyć
    · Zgłoś · 11 lat temu
Wszystkie komentarze