0
0

Here I am Wilki

Intro:

[E-------------------------------]H------7-------6---7p5---5---7--
G----7---7---7---7-----7---7-7--
D--0-------0-----------------0--
A-------------------------------
E-------------------------------

Zwrotka, zwroteczka:
[E-----------------------------------]H------7-------7-------7-------7----
G----7---7---6---6---5---5---4---4--
D--0-------0-------0-------0--------
A-----------------------------------
E-----------------------------------
e A
[E------------------------------------]H-------8----------0-----------------
G---------9----------6---------------
D-----------9------------------------
A-----7----------7-------------------
E---0----------5---------------------

Refren:
[E-----------------------]H---3-3---3-3---3-3-----
G----4-----4-----4------
D-0-----6-----5----4----
A-----------------------
[E-----------------------]zakończenie:          
------------------------
---3-3---3-3---3-3------
----4-----4-----4-------
-0-----6-----5----3-----
------------------------
------------------------

DTell me now, what's love today
the holy war's built a barricade beetween ourA hearts
Dwaiting for another day
I'm praying for peace on earth but ewhy would sAomeone
beleieve in death notA life

Here ID afism  
I wait for your eloveA 
Like an Dangfisel 
I save light in my eheartA 

DTell me now, if you can
Where was God when you changed your eguitar for a Asword
I Dlisten to the voice of earth
I feel her pain when I hear her ecall for Alove
like a echild in the Adark


HereD Ifis am
I wait for your eloveA 
Like an Dangfisel 
I save light in my eheartA 

like a echild in the dAark


HereD Ifis am
I wait for your eloveA 
Like an Dangfisel 
I save light in my eheartA 

For us...

Oceń to opracowanie
Ocena czytelników: Doskonały 2 głosy
anonim