Wakacyjny Konkurs Śpiewnikowy
Wakacyjny Konkurs Śpiewnikowy
Popraw Opracowanie Usuń
Transponuj
0

Kiedy nie ma już nic Wilki

Tekst piosenki i chwyty na gitarę

wstęp

    a         C         G            F
E|----------------------------------------1--|
H|------------1----3-3--3-0-0-0--------------|
G|--2----0-2--------------------0-2--3-------|
D|-------------------------------------------|
A|-------------------------------------------|
E|-------------------------------------------|

    a         C         D       F   d      a
E|----------------------2----2--1------------|
H|------------1------1--------------1-3-1----|
G|--2----0-2-------2-----------------------2-|
D|-------------------------------------------|
A|-------------------------------------------|
E|-------------------------------------------|


a          C            D             F
Za oknem wiatr skrada się i cicho zabija
d       cis      F             G
leżysz obok mnie i herbata wystygła
a             C              D      F
skąd wzięłaś ten wspaniały tren i jasną twarz
d        cis      F                 G
chociaż noc chce ubrać nas w swój czarny płaszcz

Muzyka gra gorący deszcz spada na moją twarz
nienawidzę łez, nienawidzę łez i końca
i tylko wiatr skrada się i puka do okna
bez słów jak my nie powiemy już do siebie nic

    C                    D                    F
    Jest światło które pali się zawsze i wszędzie
    C           D              F
    siła która budzi nas do życia
                     C        D        F
    jedyna, jedyna jest, gdy ból i łzy
          G         C        D        F
    gdy nie ma już nic, gdy ból i łzy

Przychodzi jesień i wszystko zaczyna się usypiać
i wieje wiatr w którym czuć już tylko zimę
przychodzi noc i zabiera światło dnia
bez słów jak my nie powiemy już do siebie nic

    Jest światło które pali się zawsze i wszędzie...  | x2

Am,C,G,F,D,Dm,C#m
Oceń to opracowanie
Ocena czytelników: Doskonały 4 głosy

Kontrybucje
-=art=-

Wakacyjny Konkurs Śpiewnikowy

Pula nagród w konkursie ponad 10.000 zł!
Przysyłaj opracowania piosenek i zdobądź bony na zakupy w sklepie muzycznym.
Zapoznaj się z regulaminem konkursu.
anonim