0
0

Miasto w chmurach Wilki

Intro:

G e G e 2x
Podczas grania tych akordów jest taka przygrywka:

--------------------------5/8--7-----------------
-7p8-7/5----------------------------10---8-------
-----------7--5--4----------------9---------7----
--------------------7--5-----------------------5-
-------------------------------------------------
-------------------------------------------------

--------------------5/8--7-----------------7--
-7p8-7/5----------------------10--8---7p8--8--
-----------7--5--4----------9--------------9--
----------------------------------------------
----------------------------------------------
----------------------------------------------


GMiasto w chmurach eneonami Glsni e 
GDaje nam maerzenia, kradnie Gsney
Ocal Gmnie e 
Ocal Gmnie e 

GDzieci dolca eulicami Gmkna e 
GStarzy przyjaeciele juz tam Gs__ea
Ocal Gmnie e 
Ocal Gmnie e 

Ref:
  Nie chce wiedziec Cco maja Ginni
  Nie chce Cznac twardych zyGciowych rad
  Ide Csam, jeszcze nieGwinny
  Patrze Cjak znika mój Gstary swiat

Intro:...
Zmiana koncówki:

-5/8--7----10-7-------7-
-----------------7p8--8-
... --------9-------------9-
------------------------
------------------------
------------------------

GRzeka swiatla eplyne dzien za Gdniem  e 
GW neonowych esnach przegladam Gsiee
Ocal Gmnie e 
Ocal Gmnie e 

Ref:...


Oceń to opracowanie
Ocena czytelników: Doskonały 6 głosów
Kontrybucje:
Lepart
Lepart
anonim