0
0

Bloodstream Ed Sheeran

Tekst piosenki i chwyty na gitarę

  • Chwyty na gitarę Średni
   Bsus4
E|------------------------------------------|
B|------------------------------------------|
G|-----0-----0-----------0-----0------------|
D|---4-----4-----4-----4-----4-----4--------|
A|-2-----2-----2-----2-----2-----2----------|
E|------------------------------------------|

   G7(6)
E|------------------------------------------|
B|------------------------------------------|
G|-----0-----0-----------0-----0------------|
D|---0-----0-----0-----0-----0-----0--------|
A|------------------------------------------|
E|-3-----3-----3-----3-----3-----3----------|

   A9
E|------------------------------------------|
B|------------------------------------------|
G|-----0-----0-----------0-----0------------|
D|---2-----2-----2-----2-----2-----2--------|
A|-0-----0-----0-----0-----0-----0----------|
E|------------------------------------------|

   E7
E|------------------------------------------|
B|------------------------------------------|
G|-----0-----0-----------0-----0------------|
D|---0-----0-----0-----0-----0-----0--------|
A|------------------------------------------|
E|-0-----0-----0-----0-----0-----0----------|

Bsus4
   I've been spinning out of time
G7(6)
       Couple women by my side
A9
   I got sinning on my mind
E7
   Sipping on red wine

Bsus4
   I've been sitting here for ages
G7(6)
       Ripping out the pages
A9
   How'd I get so faded
E7
   How'd I get so faded

Bsus4                          G7(6)
Oh, no, no, don't leave me lonely now
        A9                       E7
If you loved me how'd you never learn
Bsus4                            G7(6)
   Oh, colour crimson in my eyes
                          A9  E7
One or two could free my mind

G7(6)           A9
       This is how it ends
Bsus4
   I feel the chemicals
 G7(6)     A9             E7
Burn in my    bloodstream
G7(6)         A9
       Fading out again
Bsus4
   I feel the chemicals
 G7(6)     A9             E7
Burn in my    bloodstream


Refren
So tell me when it kicks in
Bsus4     G7(6)       A9     E7
   Hum..      Hum..   Hum..

Well, tell me when it kicks in
Bsus4     G7(6)       A9     E7
   Hum..      Hum..   Hum..

Bsus4
   I've been looking for a lover
G7(6)
       Thought I'd find her in a bottle
A9
   God, make me another one
E7
   I'll be feeling this tomorrow
Bsus4
   Lord, forgive me
                     G7(6)
For the things I've done
                             A9
I was never meant to hurt no one
And I saw scars upon a
E7
   Broken hearted lover

Bsus4
   Oh, no, no, don't
          G7(6)
Leave me lonely now
        A9                   E7
If you loved me how'd you never learn
Bsus4                       G7(6)
Oh, colour crimson in my eyes
                          A9  E7
One or two could free my mind

G7(6)           A9
       This is how it ends
Bsus4
   I feel the chemicals
 G7(6)     A9             E7
Burn in my    bloodstream
G7(6)         A9
       Fading out again
Bsus4
   I feel the chemicals
 G7(6)     A9             E7
Burn in my    bloodstream

Refren
So tell me when it kicks in
Bsus4     G7(6)       A9     E7
   Hum..      Hum..   Hum..

Well, tell me when it kicks in
Bsus4     G7(6)       A9     E7
   Hum..      Hum..   Hum..
Well, tell me when it kicks in

G7(6)           A9           Bsus4
       All the voices in my mind
                        G7(6)
Calling out across the line
         A9           Bsus4
All the voices in my mind
                        G7(6)
Calling out across the line

         A9           Bsus4
All the voices in my mind
                        G7(6)
Calling out across the line
         A9           Bsus4
All the voices in my mind
                        G7(6)
Calling out across the line

         A9           Bsus4
All the voices in my mind
                        G7(6)
Calling out across the line
         A9           Bsus4
All the voices in my mind
                        G7(6)
Calling out across the line

Quarta Parte:
 A9                   Bsus4
Tell me when it kicks in
            G7(6)
And I saw scars upon her
 A9                   Bsus4
Tell me when it kicks in
        G7(6)
Broken heart

 A9                   Bsus4
Tell me when it kicks in
            G7(6)
And I saw scars upon her
 A9                   Bsus4
Tell me when it kicks in
        G7(6)
Broken heart

 A9                   Bsus4
Tell me when it kicks in
            G7(6)
And I saw scars upon her
 A9                   Bsus4
Tell me when it kicks in
        G7(6)
Broken heart

 A9                   Bsus4
Tell me when it kicks in
            G7(6)
And I saw scars upon her
 A9                   Bsus4
Tell me when it kicks in
        G7(6)
Broken heart

Final:
 A9                   Bsus4
Tell me when it kicks in
            G7(6)
And I saw scars upon her
 A9                   Bsus4
Tell me when it kicks in
        G7(6)
Broken heart

 A9                   Bsus4
Tell me when it kicks in
            G7(6)
And I saw scars upon her
 A9                   Bsus4
Tell me when it kicks in

Broken heart



Oceń to opracowanie
Kontrybucje:
Redakcja
Redakcja
floem
floem
anonim