0
0

Gdy śliczna Panna Kolędy

CGdy śliczna FPanna GSyna kołysaCła,
CZ wielkim wesFelem Gtak Jemu śpiewaCła.
aLi li dli liG laj, moje DzieciFąteCczko, }
aLi li dli li laj, aśliczne FPaniąteGczCko.}BIS

Wszystko stworzenie, śpiewaj Panu swemu,
Pomóż w radości wielkiej sercu memu.
Li li li li laj, wielki Królewiczu, }
Li li li li laj, niebieski Dziedzicu!}BIS

Sypcie się z nieba, liczni aniołowie,
Śpiewajcie Panu, Niebiescy duchowie
Li li li li laj mój wonny kwiateczku,}
Li li li li laj w ubogim żłóbeczku } BIS

Cicho wietrzyku, cicho południowy,
Cicho powiewaj, niech śpi Panicz nowy,
Li li li li laj, mój wdzięczny Synaczku,
Li li li li laj, miluchny Robaczku.


BICIE: V V ^ ^ V ^


Lub:

TAB:

e)-------3-3-5-8-7-5-5-3------
H)-3-5-7----------------------
G)----------------------------
D)----------------------------
A)----------------------------
E)----------------------------

e)-------3-3-5-8-7-5-5-3------
H)-3-5-7----------------------
G)----------------------------
D)----------------------------
A)----------------------------
E)----------------------------


e)-4-2-4-0-2----2-0------------
[H)--------------------------------]G)--------------4-----4-2-------- 
D)----------------------------
A)----------------------------
E)----------------------------


e)-4-2-4-0-5-4-7-5-4-2-0-2--0-
H)-------------------------------
G)----------------------------
D)----------------------------
A)----------------------------
E)----------------------------







Oceń to opracowanie
Ocena czytelników: Niczego sobie 116 głosów
anonim
  • weronika olbrecht
    na jakiej stronie moge znaleść wszystkie chwyty gitarowe do tej piosenki
    · Zgłoś · 6 miesięcy temu
  • jarcyk18
    świetna solówka w tym filmiku. lata ćwiczeń
    · Zgłoś · 1 rok temu
  • Marcin
    ewa
    Nie wiem kto wsadzil do refrenu "F" jak to w ogole nie pasuje refren caly czas z tych samych chwytow
    · Zgłoś · 4 lata temu
  • Marcin
    Maciollo1
    niezbyt bo chwyty nie tak
    · Zgłoś · 4 lata temu
  • Marcin
    emilka xd
    fajna i prosta :) ;)
    · Zgłoś · 6 lat temu
  • Marcin
    pik
    Pierwszy refren nie trybi powinno być: e4e2e4e0e2 h4e2e0h4h2h0 druga część jest ok. Fajne opracowanie.
    · Zgłoś · 6 lat temu
  • Marcin
    emi(:
    fajne(:
    · Zgłoś · 7 lat temu
Usunięto 2 komentarze