0
0

Jingle Bells Kolędy

E----2---0-------------------2----0---------------------3---2----0----------5--5--3--0--2--|
H------------3-------------------------3---0-----0-0-----------------2---------------------|
G-2--------------2----2--2-----------------------------------------------------------------|
D------------------------------------------------------------------------------------------|
A------------------------------------------------------------------------------------------|
E------------------------------------------------------------------------------------------|

E----2---0-------------------2----0---------------------3---2----0-----5-5-5-5--7-5--3-0---|
H------------3-------------------------3---0-----0-0-------------------------------------3-|
G-2--------------2----2--2-----------------------------------------------------------------|
D------------------------------------------------------------------------------------------|
A------------------------------------------------------------------------------------------|
E------------------------------------------------------------------------------------------|

E--5-----2-2-2-----2-2-2----2-5----0--2---3-3-3-3--3--2-2-2--2-0-0-2-0---------------------|
H--------------------------------3---------------------------------------------------------|
G------------------------------------------------------------------------------------------|
D------------------------------------------------------------------------------------------|
A------------------------------------------------------------------------------------------|
E------------------------------------------------------------------------------------------|

E--5-----2-2-2-----2-2-2----2-5----0--2---3-3-3-3--3--2-2-2--5-5-3-0-----------------------|
H--------------------------------3-------------------------------------3-------------------|
G------------------------------------------------------------------------------------------|
D------------------------------------------------------------------------------------------|
A------------------------------------------------------------------------------------------|
E------------------------------------------------------------------------------------------|

DDashing through the snow.
In a oDne horse open sleigh. e 
Over fields we go. A 
Laughing all the way.  D 
DBells on bobtail ring.
DMaking spirits brighet,
What fun it is to rideA and sing.
A sleighing song tonight.D 

DHey! Jingle bells, jingle bells,
DJingle all the way.
GOh, what fun it is toD ride.
In a oEne horse open Asleigh, hey


Oceń to opracowanie
Ocena czytelników: Niczego sobie 184 głosy
anonim
  • Nostradamus
    UWAGA! Akordy i chwyty to to samo
    · Zgłoś · 2 lata temu
  • Kacper
    ANKA
    Fajnie by było jakbyście pokazali chwyty nie akordy.
    · Zgłoś · 3 lata temu
  • Kacper
    Jan Paweł
    To akurat nie jest kolęda a jeden z utworów amerykańskiego marketingu świątecznego
    · Zgłoś · 4 lata temu
  • Kacper
    Grajek ubogi
    Też mi emol nie pasuje. Czym można zastąpić?
    · Zgłoś · 4 lata temu
  • Kacper
    Ktosik
    Jakie jest bicie?
    · Zgłoś · 4 lata temu
  • Kacper
    Ta radosna
    Polecam zagrać to na tabulaturę
    Brzmi super
    · Zgłoś · 5 lat temu
  • Kacper
    janusz
    Czym mogę zastąpić "em"
    bo mi nie pasuje
    · Zgłoś · 5 lat temu
  • Kacper
    Hghgg
    Dawno takiej fajnej piosenki nie grałem
    · Zgłoś · 5 lat temu
  • Kacper
    ola
    fajne . mam 10 lat i umiem to grac na gitarze
    · Zgłoś · 6 lat temu
  • Kacper
    martusia13
    według mnie również nie pasuje. zgadzam się z ,,asiczek18"
    · Zgłoś · 6 lat temu
Wszystkie komentarze