Popraw Opracowanie Usuń
Transponuj
0

Pieśń pożegnalna Piosenki Harcerskie

Chwyty na gitarę
Ogniska już dogasa blask,	D h e A
Braterski splećmy krąg.	D D7 G
W wieczornej ciszy, w świetle gwiazd	D h e A
Ostatni uścisk rąk.	G A D

Kto raz przyjaźni poznał moc,
Nie będzie trwonić słów.
Przy innym ogniu, w inną noc,
Do zobaczenia znów.

Nie zgaśnie tej przyjaźni żar,
Co połączyła nas.
Nie pozwolimy, by ją starł
Nieubłagany czas.

Kto raz przyjaźni poznał moc…

D,Bm,Em,A,D7,G
Oceń to opracowanie
Ocena czytelników: Dobry 13 głosów

31 595 wyświetleń
Autor opracowania
Redakcja

Współpraca

W nowym śpiewniku możesz poprawiać istniejące opracowania i zdobywać punkty Karmy. Zapoznaj się z zasadami kontrybucji.
anonim
Znaleziono 10 komentarzy.
  • Anonimowy użytkownik
    Hardy 1 rok temu

    TABULATURA dla tych co ją lubią, nie mogłem znaleźć takiej, która w 100% by mi odpowiadała, więc sam wziąłem się za napisanie jej. Mam nadzieję, że się spodoba. Może być trochę krzywa, bo notatnik oraz okno czatowe trochę się ze sobą pokłóciły, ale nie ma tego złego.
    -------------------|-----------------|-----------------0--2--|
    -------------------|--2--0-----0---|--2--0--------2--------|
    ------2--1--2----|--------2-------|--------2--2------------|
    ---2--------------|-----------------|-------------------------|
    ------------------|-----------------|-------------------------|
    ------------------|-----------------|-------------------------|


    ---2--0----------|--------------|-------------------------|
    -----------2--2--|-----0-----0--|--2--0-----------------|
    ------------------|--2-----2-----|--------2----------2---|
    ------------------|---------------|-----------4-4--2------|
    ------------------|---------------|-------------------------|
    ------------------|---------------|-------------------------|


    ---2--0----------|---------------|--2--0---------0--2----|
    -----------2--2--|-----0-----0--|--------2--2------------|
    ------------------|--2-----2-----|-------------------------|
    ------------------|---------------|--------------------------|
    ------------------|---------------|--------------------------|
    ------------------|---------------|--------------------------|


    ---2--0---------|---------------|------------------------|
    ----------2--2--|-----0-----0--|--2--0-----------------|
    -----------------|--2-----2-----|--------2----------2---|
    -----------------|---------------|-----------4-4--2------|
    -----------------|---------------|------------------------|
    -----------------|---------------|------------------------|


    ---2--0--------|---------------|-2--0------------0--2--|
    ---------2--2--|-----0-----0--|---------2--2-----------|
    ----------------|--2-----2-----|-------------------------|
    ----------------|---------------|-------------------------|
    ----------------|---------------|-------------------------|
    ----------------|---------------|-------------------------|


    --2--0---------|---------------|-------------------------|
    ---------2--2--|-----0-----0--|--2--0------------------|
    ----------------|--2-----2-----|--------2------------2--|
    ----------------|---------------|----------4-4---2------|
    ----------------|---------------|-------------------------|
    ----------------|---------------|-------------------------|

  • Anonimowy użytkownik
    mały gitarzysta 2 lata temu

    Powinno być w zwrotce: D A D G D A GA7D i w ref. : D A D G D A G A7 D

  • Rzeczywista
    Rzeczywista 8 lat temu

    nie lepiej zagrać zwrotkę i refren na A E D A E D/E A
    Ja gram tak i ładnie brzmi ( ;

  • Drakon
    Drakon 8 lat temu

    Nie wiem czemu ale mnie na obozie wyjątkowo denerwowała.(bez urazy dla wykonawcy) ;)

  • madzial
    madzial 11 lat temu

    zdeka zle chwyty

    D h G A
    D D7 G
    D h G A
    G A D

    ^
    |
    |
    ja mam takie chwyty

  • Anonimowy użytkownik
    Klaudynka 12 lat temu

    Fajnaa piosenkaa :-)

  • Anonimowy użytkownik
    CyGaNeK 12 lat temu

    Najpiekniejsza piesn harcerska...

  • Anonimowy użytkownik
    CyGaNeK 12 lat temu

    Najpiekniejsza piesn harcerska...

  • Anonimowy użytkownik
    CyGaNeK 12 lat temu

    Najpiekniejsza piesn harcerska...

  • Anonimowy użytkownik
    be 12 lat temu

    Jak już coś to pieśń.