Disasterpiece Slipknot

Tekst piosenki

  • Tekst piosenki mohamed

Drop B
B Fis B E Gis Cis

( )=harmonics

Riff A x16

[e----------------------------------------------------]b--------------------------4-------------------------
g----------------------------------------------------
d----------------------------------------------------
[a----------------------------------------------------]d(3)-(2.3)--(2)--(2.6)-(3)-----(3)-(2.3)-(2)-(3)-----

gtr 2. comes in 5th time

e------------------------------------------------------
[b------------------------------------------------------]g--------------14~~------------------------------13~~--
[d------------------------------------------------------]a--------------12~~------------------------------11~~--
d-0-0--0---0-0------0-0-0-0-2-0-3-1-0-0--0---0-0-------

e------------------------------------------------------
[b------------------------------------------------------]g------------------------------14----------------------
[d------------------------------------------------------]a------------------------------12~~--------------------
d-0-0-0-0-3-0-3-1-0-0--0---0-0------0-0-0-0-2-0-3-1----

e------------------------------------------------------
[b------------------------------------------------------]g--------------14----------------14---------------13---
[d------------------------------------------------------]a--------------12~~--------------12\--------------11~~-
d-0-0--0---0-0------0-0--0---0-0-----0-0--0---0-0------

e------------------------------------------------------
b------------------------------------------------------
g------------------------------------------------------
[d------------------------------------------------------]a------------------------------11~~--------------------
d-0-0-0h2-2p0-3p1-0-0--0---0-0------0-0-0h2-2p0-3p1----

x5

e------------------------------------------------------
[b------------------------------------------------------]g--------------13/14-----------------------------------
[d------------------------------------------------------]a--------------11/12-----------------------------------
d-0-0--0---0-0----------0-0-0h2-2p0-3p1----------------

e------------------------------------------------------
[b------------------------------------------------------]g--------------13/14-----------------------------------
[d------------------------------------------------------]a--------------11/12-----------------------------------
d-0-0--0---0-0-------x-xx-x-xx-xxx\\\-x-x-x-x----------

both gtrs
x4

e------------------------------------------------------
b------------------------------------------------------
g------------------------------------------------------
d------------------------------------------------------
[a------------------------------------------------------]d-0-0--0---1-1--1--0-0-0h2-2p0-3p1---------------------

Fig 1.
x4

e------------------------------------------------------
b------------------------------------------------------
g------------------------------------------------------
[d------------------------------------------------------]a------0--------1------0-2-2-0-3-1---------------------
d-0-0--0---1-1--1--0-0-0-2-2-0-3-1---------------------

Riff B Verse

e------------------------------------------------------
b------------------------------------------------------
g------------------------------------------------------
d------------------------------------------------------
[a------------------------------------------------------]d-0-0-0-1-1-1-0-----2p1-0-3p1-4p1----------------------

Chorus

e------------------------------------------------------
[b------------------------------------------------------]g----------------------33333333                        



Oceń to opracowanie
Kontrybucje:
mohamed
mohamed
anonim