Wait & Bleed Slipknot

TUNING: down one and a half steps and then drop d (B-Fis-B-E-Gis-Cis)


CHORUS/INTRO: (guitar 1)

Cis|---------------------------------------------------|
Gis|---------------------------------------------------|
E|---------------------------------------------------|
B|-----0-----7-----7-----1-----1-----/8-----8-----0--|
F#|-----------------------------------/8--------------|
B|--0-----0-----7-----7-----1-----1------8-----8-----|

CHORUS/INTRO: (guitar 2)

Cis|------------------------------------|
Gis|------------------------------------|
E|--14--14-14-14--14--14--14--14--14--| add in bends when
B|------------------------------------| necessary
F#|--12--12-12-12--12--12--12--12--12--|
B|------------------------------------|

FILL: (before first verse)

Cis|------------------------|
Gis|------------------------|
E|------------------------|
B|--0h1p0--0h1p0----------|
F#|--0h1p0--0h1p0-------5--|
B|--0h1p0--0h1p0--0/6-----|

VERSE:

Cis|-------------------------|
Gis|-------------------------|
E|-------------------------|
B|--0h1p0--0h1p0--1--4--1--|
F#|--0h1p0--0h1p0--1--4--1--|
B|--0h1p0--0h1p0--1--4--1--|
pm.....

BREAKDOWN: (1:34)

Cis|--------------------------------|
Gis|--------------------------------|
E|--------------------------------|
B|--------------------------------|
F#|-----------12-------------------|
B|--0h13h15------0--13--12----12--|

BRIDGE: (1:39)

Cis|---------------------|
Gis|---------------------|
E|---------------------|
B|--0h1h3--2--0--1--0--|
F#|--0h1h3--0--0--1--0--|
B|--0h1h3-----0--1--0--|

LAST CHORUS: (1:54)

Cis|--------------------------------------------------|
Gis|--------------------------------------------------|
E|--------------------------------------------------|
B|--0--0--0--7--7--7--7--1--1--1--1--1--1--1--1--1--|
F#|--0--0--0--7--7--7--7--1--1--1--1--1--1--1--1--1--|
B|--0--0--0--7--7--7--7--1--1--1--1--1--1--1--1--1--|

OUTRO: (2:14)

Play this twice

Cis|------------------------|
Gis|------------------------|
E|------------------------|
B|--0h1p0--0h1p0----------|
F#|--0h1p0--0h1p0-------5--|
B|--0h1p0--0h1p0--0/6-----|

Play this a whole bunch of times

Cis|-------------------------|
Gis|-------------------------|
E|-------------------------|
B|--0h1p0--0h1p0--1--4--1--|
F#|--0h1p0--0h1p0--1--4--1--|
B|--0h1p0--0h1p0--1--4--1--|

And end on this

Cis|---------|
Gis|---------|
E|---------|
B|--0h1p0--|
F#|--0h1p0--|
B|--0h1p0--|



Oceń to opracowanie
Kontrybucje:
s314ryt
s314ryt
anonim